Fanny Adams - Aint No Loving Left tab

Fanny Adams "Ain't no loving left"
from the LP "Fanny Adams"

Acuistic intro is not tabbed.

RIFF A:
|----------------------0----|
|----------------------5----|
|----------------------4----|
|------5-2-------------2----|
|---------------------------|
|0----------3--0------------|

RIFF A1:
|---------------------------|
|---------------------------|
|---------------------------|
|------5-2------------------|
|----------------------~----|
|0----------3--0-------3----|

Leave out the last note when going to Riff B.


RIFF B:
|---------------------------|
|---------------------------|
|------5-2------------------|
|----------------------~----|
|0----------3--0-------3----|
|---------------------------|


LICK B:
When he sings "Ain't no loving left"
|----------------|
|----------------|
|----------------|
|----------------|
|7-5-3--5-3------|
|-------------5--|


RIFF C:
|---------------------------|
|------6-3------------------|
|----------------------~----|
|0----------3--0-------3----|
|---------------------------|
|---------------------------|

LICK C:

When he sings "Ain't no loving left"

|----------------|
|----------------|
|----------------|
|7-5-3--5-3------|
|-------------5--|
|----------------|


RIFF D:
|-----------------------|
|-----------------------|
|-----------------------|
|-----------------------|
|----------2-5--2-5-----|
|0---0-3-5-----------1--|

LICK D:
|------------|
|------------|
|------------|
|222222555555|
|000000333333|
|------------|

~ = vibrate


SONG STRUCTURE:
INTRO
RIFF A X2
RIFF A1 X6
RIFF B X2
LICK B x1
RIFF A X2
RIFF B X6
RIFF C X2
LICK C X1
RIFF A X2
RIFF D x12 (with solo)
LICK D x1 (with solo)
RIFF D x8 (with solo + a third guitar picks 12th fret at high E string rapidly)
LICK D x1 (with solo + a third guitar picks 12th fret at high E string rapidly)
RIFF D x8 (with solo + a third guitar picks 12th fret at high E string rapidly)
LICK D x1 (with solo + a third guitar picks 12th fret at high E string rapidly)
RIFF D x4 (with solo + a third guitar picks 12th fret at high E string rapidly)
RIFF A X2
RIFF A1 X6
RIFF B X2
RIFF A X2
Drums continue until fade
Tabbed by Anders Pedersen
Tap to rate this tab
 
# A B C D E F G H I J K L M N O P Q R S T U V W X Y Z