Far East Movement - Like A G6 tab

intro
e|---------------------------------------------------------------------------|
B|---------------------------------------------------------------------------|
G|---------------------------------------------------------------------------|
D|---------6-----------------------------------------------------------------|
A|-----------6/7-7-7\6-------------------------------------------------------|
E|---4-4-4-------------------------------------------------------------------|

verse
e|---------------------------------------------------------------------------|
B|---------------------------------------------------------------------------|
G|---------------------------------------------------------------------------|
D|---------6-----------------------------------------------------------------|
A|-----------6/7-7-7\6-------------------------------------------------------|
E|---4-4---------------------------------------------------------------------|


/ = slide up
\ = slide down
Tap to rate this tab
 
# A B C D E F G H I J K L M N O P Q R S T U V W X Y Z