Song name
# A B C D E F G H I J K L M N O P Q R S T U V W X Y Z

Far East Movement - Rocketeer tab

(/) Slide Up
(\) Slide Down
(h) Hammer On
(p) Pull Off
(b) Bend
(r) Release
(v) Vibrato



ROCKETEER intro.


E|--------7---------5--------5-----------4--------|
B|--5--6------6--5-----5--6-----8--6--5-----7--5--|
G|------------------------------------------------|
D|------------------------------------------------|
A|------------------------------------------------|
E|------------------------------------------------|
           Here we go, come with me
   There's a world out there that we should see

E|--------7---------5-----7--5--3--------7--5--3--|
B|--5--6------6--5-----5-----------5--7-----------|
G|------------------------------------------------|
D|------------------------------------------------|
A|------------------------------------------------|
E|------------------------------------------------|
         Take my hand, close your eyes
     With you right here, I'm a rocketeer

E|--------------------------|
B|----5----7s8s9s10s11s12s--|
G|--------------------------|
D|--------------------------|
A|--------------------------|
E|--------------------------|
       Let's fly...
Tap to rate this tab
# A B C D E F G H I J K L M N O P Q R S T U V W X Y Z