Song name
# A B C D E F G H I J K L M N O P Q R S T U V W X Y Z

Far East Movement - Rocketeer chords

Highlighted       Show chord diagrams
Hey guys this is my first tab i hope u like it.
You may pluck it once in the verses then twice and faster in the chorus.
All the chords are the same through out the whole song.
  
 Cmaj7  Am7    Bm7  G/Em7

VERSE:

Cmaj7
E|--------------------------------|   
A|-----3--------3--------3--------|   
D|-------2--------2--------2------|
G|-------0--------0--------0------|
B|--------------------------------|
E|--------------------------------|


Am7
E|--------------------------------|   
A|-----3--------3--------3--------|   
D|-------2--------2--------2------|
G|-------0--------0--------0------|
B|--------------------------------|
E|--------------------------------|


Bm7
E|--------------------------------|   
A|-----3--------3--------3--------|   
D|-------2--------2--------2------|
G|-------0--------0--------0------|
B|--------------------------------|
E|--------------------------------|


G/Em7
E|--------------------------------|   
A|-----3--------3--------3--------|   
D|-------2--------2--------2------|
G|-------0--------0--------0------|
B|--------------------------------|
E|--------------------------------|


Please comment below on some things i can improve on.
Tap to rate this tab
# A B C D E F G H I J K L M N O P Q R S T U V W X Y Z