Song name
# A B C D E F G H I J K L M N O P Q R S T U V W X Y Z

Far From Finished - Dusty Shelves tab

Far From Finished
East Side of Nowhere
Dusty Shelves

Intro/Verse:
-----------------------------------------------------|
-----------------------------------------------------|
-----------------------------------7-7-7-7-7-7-7-7---|
---7-7-7-7-7-7-7-7-2-2-2-2-2-2-2-2-7-7-7-7-7-7-7-7---|
---7-7-7-7-7-7-7-7-2-2-2-2-2-2-2-2-5-5-5-5-5-5-5-5---| x1
---5-5-5-5-5-5-5-5-0-0-0-0-0-0-0-0-------------------|
  pm.............................................pm

-------------------------------------|
-------------------------------------|
---------------------------7-7-7-7---|
---7-7-7-7-7-7-7-7-2-2-2-2-7-7-7-7---|
---7-7-7-7-7-7-7-7-2-2-2-2-5-5-5-5---| x2
---5-5-5-5-5-5-5-5-0-0-0-0-----------|
  pm.............................pm
Tap to rate this tab
 
# A B C D E F G H I J K L M N O P Q R S T U V W X Y Z