Song name
# A B C D E F G H I J K L M N O P Q R S T U V W X Y Z

Far From Finished - Heroes And Ghosts tab

Help us improve GuitareTab! Take a short survey!
Far From Finished
Living In The Fallout
Heroes and Ghosts

Intro:
---------|
---------|
---------|
---8p6---|
---------| many times
---------|

Bridge:
Guitar 1
-----------------------------------------|
-----------------------------------------|
---------6-------6-------6-8b-8b-8-6-----|
---8-8-8---8-8-8---8-8-8-------------8---|
-----------------------------------------|
-----------------------------------------|

----------------------------------------|
------------------------------9-6-------|
---------6-------6-------6-8b-----8-----|
---8-8-8---8-8-8---8-8-8------------8---|
----------------------------------------|
----------------------------------------|

Guitar 2
Bb   F#   C#   G#   x4

Verse:
Both Guitars
Bb   C#   F#   G#   x4
pm.................pm

Pre-Chorus:
Both Guitars
G#F#F      F#   C#   G#   F

Chorus:
Both Guitars
Bb   F#   C#   G#
Related for Heroes And Ghosts tab