Song name
# A B C D E F G H I J K L M N O P Q R S T U V W X Y Z

Far From Finished - 9 Lives tab

     Dirty Pretty Things
          9 Lives
Barat/Rossomando/Hammond/Powell
  Love Music Hate Racism CD 1

Guitar 1: Carl Barat (Carl) - Acoustic
Guitar 2: Anthony Rossomando (Stan) - Electric

Intro:

Carl:

e-0--0--0-0--0--0--0--0-0---0--0--0-0-0-|
B-0--0--0-0--0--0--0--0-0---1--1--1-1-1-|
G-0--0--0-0--0--0--0--0-0---2--2--2-2-2-|
D-2--2--2-2--2--2--2--2-2---2--2--2-2-2-|
A-2--2--2-2--2--2--2--2-2---0--0--0-0-0-|
E-0--0--0-0--0--0--0--0-0---------------|

e-0--0--0-0-0--0-0-0-0-2-2--2-2-2-0-0-0-0-0-0-0-0-|
B-0--0--0-0-0--0-0-0-0-4-4--4-4-4-0-0-0-0-0-0-0-0-|
G-0--0--0-0-0--0-0-0-0-4-4--4-4-4-0-0-0-0-0-0-0-0-|
D-2--2--2-2-2--2-2-2-2-4-4--4-4-4-2-2-2-2-2-2-2-2-|
A-2--2--2-2-2--2-2-2-2-2-2--2-2-2-2-2-2-2-2-2-2-2-|
E-0--0--0-0-0--0-0-0-0------------0-0-0-0-0-0-0-0-|

Verse:

Carl:

e-0--0--0-0--0--0--0--0-0---0--0--0-0-0-|
B-0--0--0-0--0--0--0--0-0---1--1--1-1-1-|
G-0--0--0-0--0--0--0--0-0---2--2--2-2-2-|
D-2--2--2-2--2--2--2--2-2---2--2--2-2-2-|
A-2--2--2-2--2--2--2--2-2---0--0--0-0-0-|
E-0--0--0-0--0--0--0--0-0---------------|

e-0--0--0-0-0--0-0-0-0-2-2--2-2-2-0-0-0-0-0-0-0-0-|
B-0--0--0-0-0--0-0-0-0-4-4--4-4-4-0-0-0-0-0-0-0-0-|
G-0--0--0-0-0--0-0-0-0-4-4--4-4-4-0-0-0-0-0-0-0-0-|
D-2--2--2-2-2--2-2-2-2-4-4--4-4-4-2-2-2-2-2-2-2-2-|
A-2--2--2-2-2--2-2-2-2-2-2--2-2-2-2-2-2-2-2-2-2-2-|
E-0--0--0-0-0--0-0-0-0------------0-0-0-0-0-0-0-0-|

e-0--0--0-0--0--0--0--0-0---0--0--0-0-0-|
B-0--0--0-0--0--0--0--0-0---1--1--1-1-1-|
G-0--0--0-0--0--0--0--0-0---2--2--2-2-2-|
D-2--2--2-2--2--2--2--2-2---2--2--2-2-2-|
A-2--2--2-2--2--2--2--2-2---0--0--0-0-0-|
E-0--0--0-0--0--0--0--0-0---------------|

e-0--0--0-0-0--0-0-0-0-2-2--2-2-2-0-0-0-0-0-0-0-0-|
B-0--0--0-0-0--0-0-0-0-4-4--4-4-4-0-0-0-0-0-0-0-0-|
G-0--0--0-0-0--0-0-0-0-4-4--4-4-4-0-0-0-0-0-0-0-0-|
D-2--2--2-2-2--2-2-2-2-4-4--4-4-4-2-2-2-2-2-2-2-2-|
A-2--2--2-2-2--2-2-2-2-2-2--2-2-2-2-2-2-2-2-2-2-2-|
E-0--0--0-0-0--0-0-0-0------------0-0-0-0-0-0-0-0-|

e-0--0--0-0--0--0--0--0-0---0--0--0-0-0-|
B-0--0--0-0--0--0--0--0-0---1--1--1-1-1-|
G-0--0--0-0--0--0--0--0-0---2--2--2-2-2-|
D-2--2--2-2--2--2--2--2-2---2--2--2-2-2-|
A-2--2--2-2--2--2--2--2-2---0--0--0-0-0-|
E-0--0--0-0--0--0--0--0-0---------------|

e-0--0--0-0-0--0-0-0-0-2-2--2-2-2-0-0-0-0-0-0-0-0-|
B-0--0--0-0-0--0-0-0-0-4-4--4-4-4-0-0-0-0-0-0-0-0-|
G-0--0--0-0-0--0-0-0-0-4-4--4-4-4-0-0-0-0-0-0-0-0-|
D-2--2--2-2-2--2-2-2-2-4-4--4-4-4-2-2-2-2-2-2-2-2-|
A-2--2--2-2-2--2-2-2-2-2-2--2-2-2-2-2-2-2-2-2-2-2-|
E-0--0--0-0-0--0-0-0-0------------0-0-0-0-0-0-0-0-|

Pre-Chorus:

Carl:

e-0-0-0-----|
B-0-0-0-----|
G-0-0-0-----|
D-2-2-2-----|
A-2-2-2-----|
E-0-0-0-2-3-|

Chorus:

Carl:
*
e-0--0--0--0--0-0--0--0--0--0--0-0--2--2--2--2--2--2-2-|
B-1--1--1--1--1-1--0--0--0--0--0-0--4--4--4--4--4--4-4-|
G-2--2--2--2--2-2--0--0--0--0--0-0--4--4--4--4--4--4-4-|
D-2--2--2--2--2-2--2--2--2--2--2-2--4--4--4--4--4--4-4-|
A-0--0--0--0--0-0--2--2--2--2--2-2--2--2--2--2--2--2-2-|
E------------------0--0--0--0--0-0---------------------|

e-0--0--------0--0--0--0--0-0--0--0--0--0--0-0--2-2-2-2-|
B-0--0--------1--1--1--1--1-1--0--0--0--0--0-0--4-4-4-4-|
G-0--0--------2--2--2--2--2-2--0--0--0--0--0-0--2-2-2-2-|
D-2--2--------2--2--2--2--2-2--2--2--2--2--2-2--4-4-4-4-|
A-2--2--------0--0--0--0--0-0--2--2--2--2--2-2--2-2-2-2-|
E-0--0-0-2-3-------------------0--0--0--0--0-0----------|

Stan:
*
e-12-------12------12-------12---------------------------------|
B-----13-------13------11-------11--10-------10----12-10-------|
G---------------------------------------11------11-------12-10-|
D--------------------------------------------------------------|
A--------------------------------------------------------------|
E--------------------------------------------------------------|

e-12-------12------12-------12---------------------|
B-----13-------13------11-------11--12-11-10-------|
G--------------------------------------------12-10-|
D--------------------------------------------------|
A--------------------------------------------------|
E--------------------------------------------------|

Verse:

Carl:

e-0--0--0-0--0--0--0--0-0---0--0--0-0-0-|
B-0--0--0-0--0--0--0--0-0---1--1--1-1-1-|
G-0--0--0-0--0--0--0--0-0---2--2--2-2-2-|
D-2--2--2-2--2--2--2--2-2---2--2--2-2-2-|
A-2--2--2-2--2--2--2--2-2---0--0--0-0-0-|
E-0--0--0-0--0--0--0--0-0---------------|

e-0--0--0-0-0--0-0-0-0-2-2--2-2-2-0-0-0-0-0-0-0-0-|
B-0--0--0-0-0--0-0-0-0-4-4--4-4-4-0-0-0-0-0-0-0-0-|
G-0--0--0-0-0--0-0-0-0-4-4--4-4-4-0-0-0-0-0-0-0-0-|
D-2--2--2-2-2--2-2-2-2-4-4--4-4-4-2-2-2-2-2-2-2-2-|
A-2--2--2-2-2--2-2-2-2-2-2--2-2-2-2-2-2-2-2-2-2-2-|
E-0--0--0-0-0--0-0-0-0------------0-0-0-0-0-0-0-0-|

e-0--0--0-0--0--0--0--0-0---0--0--0-0-0-|
B-0--0--0-0--0--0--0--0-0---1--1--1-1-1-|
G-0--0--0-0--0--0--0--0-0---2--2--2-2-2-|
D-2--2--2-2--2--2--2--2-2---2--2--2-2-2-|
A-2--2--2-2--2--2--2--2-2---0--0--0-0-0-|
E-0--0--0-0--0--0--0--0-0---------------|

e-0--0--0-0-0--0-0-0-0-2-2--2-2-2-0-0-0-0-0-0-0-0-|
B-0--0--0-0-0--0-0-0-0-4-4--4-4-4-0-0-0-0-0-0-0-0-|
G-0--0--0-0-0--0-0-0-0-4-4--4-4-4-0-0-0-0-0-0-0-0-|
D-2--2--2-2-2--2-2-2-2-4-4--4-4-4-2-2-2-2-2-2-2-2-|
A-2--2--2-2-2--2-2-2-2-2-2--2-2-2-2-2-2-2-2-2-2-2-|
E-0--0--0-0-0--0-0-0-0------------0-0-0-0-0-0-0-0-|

e-0--0--0-0--0--0--0--0-0---0--0--0-0-0-|
B-0--0--0-0--0--0--0--0-0---1--1--1-1-1-|
G-0--0--0-0--0--0--0--0-0---2--2--2-2-2-|
D-2--2--2-2--2--2--2--2-2---2--2--2-2-2-|
A-2--2--2-2--2--2--2--2-2---0--0--0-0-0-|
E-0--0--0-0--0--0--0--0-0---------------|

e-0--0--0-0-0--0-0-0-0-2-2--2-2-2-0-0-0-0-0-0-0-0-|
B-0--0--0-0-0--0-0-0-0-4-4--4-4-4-0-0-0-0-0-0-0-0-|
G-0--0--0-0-0--0-0-0-0-4-4--4-4-4-0-0-0-0-0-0-0-0-|
D-2--2--2-2-2--2-2-2-2-4-4--4-4-4-2-2-2-2-2-2-2-2-|
A-2--2--2-2-2--2-2-2-2-2-2--2-2-2-2-2-2-2-2-2-2-2-|
E-0--0--0-0-0--0-0-0-0------------0-0-0-0-0-0-0-0-|

Pre-Chorus:

Carl:

e-0-0-0-----|
B-0-0-0-----|
G-0-0-0-----|
D-2-2-2-----|
A-2-2-2-----|
E-0-0-0-2-3-|

Chorus:

Carl:
*
e-0--0--0--0--0-0--0--0--0--0--0-0--2--2--2--2--2--2-2-|
B-1--1--1--1--1-1--0--0--0--0--0-0--4--4--4--4--4--4-4-|
G-2--2--2--2--2-2--0--0--0--0--0-0--4--4--4--4--4--4-4-|
D-2--2--2--2--2-2--2--2--2--2--2-2--4--4--4--4--4--4-4-|
A-0--0--0--0--0-0--2--2--2--2--2-2--2--2--2--2--2--2-2-|
E------------------0--0--0--0--0-0---------------------|

e-0--0--------0--0--0--0--0-0--0--0--0--0--0-0--2-2-2-2-|
B-0--0--------1--1--1--1--1-1--0--0--0--0--0-0--4-4-4-4-|
G-0--0--------2--2--2--2--2-2--0--0--0--0--0-0--2-2-2-2-|
D-2--2--------2--2--2--2--2-2--2--2--2--2--2-2--4-4-4-4-|
A-2--2--------0--0--0--0--0-0--2--2--2--2--2-2--2-2-2-2-|
E-0--0-0-2-3-------------------0--0--0--0--0-0----------|

Stan:
*
e-12-------12------12-------12---------------------------------|
B-----13-------13------11-------11--10-------10----12-10-------|
G---------------------------------------11------11-------12-10-|
D--------------------------------------------------------------|
A--------------------------------------------------------------|
E--------------------------------------------------------------|

e-12-------12------12-------12---------------------|
B-----13-------13------11-------11--12-11-10-------|
G--------------------------------------------12-10-|
D--------------------------------------------------|
A--------------------------------------------------|
E--------------------------------------------------|

Verse:

Carl:

e-0--0--0-0--0--0--0--0-0---0--0--0-0-0-|
B-0--0--0-0--0--0--0--0-0---1--1--1-1-1-|
G-0--0--0-0--0--0--0--0-0---2--2--2-2-2-|
D-2--2--2-2--2--2--2--2-2---2--2--2-2-2-|
A-2--2--2-2--2--2--2--2-2---0--0--0-0-0-|
E-0--0--0-0--0--0--0--0-0---------------|

e-0--0--0-0-0--0-0-0-0-2-2--2-2-2-0-0-0-0-0-0-0-0-|
B-0--0--0-0-0--0-0-0-0-4-4--4-4-4-0-0-0-0-0-0-0-0-|
G-0--0--0-0-0--0-0-0-0-4-4--4-4-4-0-0-0-0-0-0-0-0-|
D-2--2--2-2-2--2-2-2-2-4-4--4-4-4-2-2-2-2-2-2-2-2-|
A-2--2--2-2-2--2-2-2-2-2-2--2-2-2-2-2-2-2-2-2-2-2-|
E-0--0--0-0-0--0-0-0-0------------0-0-0-0-0-0-0-0-|

e-0--0--0-0--0--0--0--0-0---0--0--0-0-0-|
B-0--0--0-0--0--0--0--0-0---1--1--1-1-1-|
G-0--0--0-0--0--0--0--0-0---2--2--2-2-2-|
D-2--2--2-2--2--2--2--2-2---2--2--2-2-2-|
A-2--2--2-2--2--2--2--2-2---0--0--0-0-0-|
E-0--0--0-0--0--0--0--0-0---------------|

e-0--0--0-0-0--0-0-0-0-2-2--2-2-2-0-0-0-0-0-0-0-0-|
B-0--0--0-0-0--0-0-0-0-4-4--4-4-4-0-0-0-0-0-0-0-0-|
G-0--0--0-0-0--0-0-0-0-4-4--4-4-4-0-0-0-0-0-0-0-0-|
D-2--2--2-2-2--2-2-2-2-4-4--4-4-4-2-2-2-2-2-2-2-2-|
A-2--2--2-2-2--2-2-2-2-2-2--2-2-2-2-2-2-2-2-2-2-2-|
E-0--0--0-0-0--0-0-0-0------------0-0-0-0-0-0-0-0-|
*
e-0--0--0-0--0--0--0--0-0---0--0--0-0-0-|
B-0--0--0-0--0--0--0--0-0---1--1--1-1-1-|
G-0--0--0-0--0--0--0--0-0---2--2--2-2-2-|
D-2--2--2-2--2--2--2--2-2---2--2--2-2-2-|
A-2--2--2-2--2--2--2--2-2---0--0--0-0-0-|
E-0--0--0-0--0--0--0--0-0---------------|

e-0--0--0-0-0--0-0-0-0-2-2--2-2-2-0-0-0-0-0-0-0-0-|
B-0--0--0-0-0--0-0-0-0-4-4--4-4-4-0-0-0-0-0-0-0-0-|
G-0--0--0-0-0--0-0-0-0-4-4--4-4-4-0-0-0-0-0-0-0-0-|
D-2--2--2-2-2--2-2-2-2-4-4--4-4-4-2-2-2-2-2-2-2-2-|
A-2--2--2-2-2--2-2-2-2-2-2--2-2-2-2-2-2-2-2-2-2-2-|
E-0--0--0-0-0--0-0-0-0------------0-0-0-0-0-0-0-0-|

Stan:
*
e-7------7--------7---------5--|
B-8------8--------8---------5--|
G-9------9--------9---------5--|
D-9------9--------9---------7--|
A-7------7--------7---------7--|
E---------------------------5--|
Pre-Chorus:

Carl:

e-0-0-0-----|
B-0-0-0-----|
G-0-0-0-----|
D-2-2-2-----|
A-2-2-2-----|
E-0-0-0-2-3-|

Outro:

Carl:
*
e-0--0--0--0--0-0--0--0--0--0--0-0--2--2--2--2--2--2-2-|
B-1--1--1--1--1-1--0--0--0--0--0-0--4--4--4--4--4--4-4-|
G-2--2--2--2--2-2--0--0--0--0--0-0--4--4--4--4--4--4-4-|
D-2--2--2--2--2-2--2--2--2--2--2-2--4--4--4--4--4--4-4-|
A-0--0--0--0--0-0--2--2--2--2--2-2--2--2--2--2--2--2-2-|
E------------------0--0--0--0--0-0---------------------|

e-0--0--------0--0--0--0--0-0--0--0--0--0--0-0--2-2-2-2-|
B-0--0--------1--1--1--1--1-1--0--0--0--0--0-0--4-4-4-4-|
G-0--0--------2--2--2--2--2-2--0--0--0--0--0-0--2-2-2-2-|
D-2--2--------2--2--2--2--2-2--2--2--2--2--2-2--4-4-4-4-|
A-2--2--------0--0--0--0--0-0--2--2--2--2--2-2--2-2-2-2-|
E-0--0-0-2-3-------------------0--0--0--0--0-0----------|

Stan:
*
e-12-------12------12-------12---------------------------------|
B-----13-------13------11-------11--10-------10----12-10-------|
G---------------------------------------11------11-------12-10-|
D--------------------------------------------------------------|
A--------------------------------------------------------------|
E--------------------------------------------------------------|

e-12-------12------12-------12-----------------------------------|
B-----13-------13------11-------11--10----10---10----10----10----|
G--------------------------------------11---11----11----11----11-|
D----------------------------------------------------------------|
A----------------------------------------------------------------|
E----------------------------------------------------------------|

Carl:
*
e-0--0--0--0--0-0--0--0--0--0--0-0--2--2--2--2--2--2-2-|
B-1--1--1--1--1-1--0--0--0--0--0-0--4--4--4--4--4--4-4-|
G-2--2--2--2--2-2--0--0--0--0--0-0--4--4--4--4--4--4-4-|
D-2--2--2--2--2-2--2--2--2--2--2-2--4--4--4--4--4--4-4-|
A-0--0--0--0--0-0--2--2--2--2--2-2--2--2--2--2--2--2-2-|
E------------------0--0--0--0--0-0---------------------|

e-0--0--------0--0--0--0--0-0--0--0--0--0--0-0--2-2-2-2-|
B-0--0--------1--1--1--1--1-1--0--0--0--0--0-0--4-4-4-4-|
G-0--0--------2--2--2--2--2-2--0--0--0--0--0-0--2-2-2-2-|
D-2--2--------2--2--2--2--2-2--2--2--2--2--2-2--4-4-4-4-|
A-2--2--------0--0--0--0--0-0--2--2--2--2--2-2--2-2-2-2-|
E-0--0-0-2-3-------------------0--0--0--0--0-0----------|

e-0--0--0--0--0--0-|
B-0--0--0--0--0--0-|
G-0--0--0--0--0--0-|
D-2--2--2--2--2--2-|
A-2--2--2--2--2--2-|
E-0--0--0--0--0--0-|

Stan:
*
e-12-------12------12-------12---------------------------------|
B-----13-------13------11-------11--10-------10----12-10-------|
G---------------------------------------11------11-------12-10-|
D--------------------------------------------------------------|
A--------------------------------------------------------------|
E--------------------------------------------------------------|

e-12-------12------12-------12-------------------------------|
B-----13-------13------11-------11--12-10--------12-10-------|
G-----------------------------------------12-10--------12-10-|
D------------------------------------------------------------|
A------------------------------------------------------------|
E------------------------------------------------------------|
Tap to rate this tab
# A B C D E F G H I J K L M N O P Q R S T U V W X Y Z