Song name
# A B C D E F G H I J K L M N O P Q R S T U V W X Y Z

Far From Finished - 1849 tab

Far From Finished
Living in the Fallout
1849


Chorus:

Guitar 1
F# D A C#
F# D A C#

Guitar 2
-------------------------------------|
-------------------------------------|
-------------2-----------------------|
---------0-4-------2-----------------|
-----0-4-------0-4---4-4-4-4-2-0-----|
---2-----------------------------4---|

Verse:
F# A F# A F# A F# A F# A
pm.....................pm


Pre-Chorus:
C#

then

-------------|
-------------|
-------------|
-------------|
---4-2-0-----|
---------4---|

Bridge #1:
AAAA BBBB F# F# F# F# F# F# F# F#
          pm....................pm

AAAA BBBB F# F# F# F# F# F# F# F#
          pm....................pm

AAAA BBBB F# F# F# F# F# F# F# F#
          pm....................pm

AAAA BBBB C# C# C# C# C# C# C# C#

Bridge #2:
DDD C# B F# F# F# F# F# F# F# F#
            pm.................pm

DDD C# B F# F# F# F# F# F# F# F#
            pm.................pm

DDD C# B F# F# F# F# F# F# F# F#
            pm.................pm

E E E E E E E E E E E E E E E E E
pm..............................pm
Tap to rate this tab
 
# A B C D E F G H I J K L M N O P Q R S T U V W X Y Z