Song name
# A B C D E F G H I J K L M N O P Q R S T U V W X Y Z

Far-less - Forever And A Day chords

Highlighted       Show chord diagrams
Far Less: Forever and a Day
Key: Bm
Capo 1: Standard Tuning, chords and tab relative to capo.

Verse: 
	A			     G
e|-------------------------------------------------------------------------|
B|------------2---------------------0--------------------------------------|
G|---------------2----1----------------0-----------------------------------| 
D|--------2--------2----2--------0--------0---4----------------------------|
A|-----0-------------------------------------------------------------------|
E|---------------------------3---------------------------------------------|
Repeat throughout verse

You wait
Forever and a day for me
You hate
Forever's just too far away

Chorus:
Bm              E
We love like a bad dream, and
Bm            E
You'll never save me

D          E                 F#m
Sometimes life isn't easy at all   
D          E                 F#m
Sometimes life isn't easy at all

Verse: 
	A			     G
e|-------------------------------------------------------------------------|
B|------------2---------------------0--------------------------------------|
G|---------------2----1----------------0-----------------------------------| 
D|--------2--------2----2--------0--------0---4----------------------------|
A|-----0-------------------------------------------------------------------|
E|---------------------------3---------------------------------------------|
Repeat throughout verse

Times are trying
But people only want to feel good
Indulging in anything is easy confidence, and

Bm                E
I know I'm not invincible, oh
Bm               E
Maybe I'll know myself soon

D          E                 F#m
Sometimes life isn't easy, my love
D          E                 F#m
Sometimes life isn't easy at all



Tap to rate this tab
 
# A B C D E F G H I J K L M N O P Q R S T U V W X Y Z