Song name
# A B C D E F G H I J K L M N O P Q R S T U V W X Y Z

Far - Pony tab

e|------------------------|
b|------------------------|
g|66--6------------4--66--|
d|66--6--6--44--4--4--66--|
a|44--4--6--44--4--2--44--|
E|-------4--22--2---------|

Pretty much just repeats. Every so often there's a lead guitar line that's over the main 
it goes like"

e|9999999999999999-----------------------7777777799999999-|
b|----------------99999997777777777777777-----------------|
g|--------------------------------------------------------|
d|--------------------------------------------------------|
a|--------------------------------------------------------|
E|--------------------------------------------------------|
(Tremolo picking, repeats itself a couple of times)

First tab, that's really all there is to this song. Rock on!
Tap to rate this tab
 
# A B C D E F G H I J K L M N O P Q R S T U V W X Y Z