Guitaretab - guitar tabs
Song name
# A B C D E F G H I J K L M N O P Q R S T U V W X Y Z

Far - Really Here tab

-------------------------------------------------------------------------------
			     Really Here - Far
-------------------------------------------------------------------------------
Tabbed by: Holy Ghost 
Email: graydenlennonday@yahoo.com

Tuning: D A D G b e

Intro and pre verse riff (Shaun)

e|---------------------------------------------------------------------------|
B|---------------------------------------------------------------------------|
G|-11-/-7---7-/------------------11-/-7---7-/--------------------------------|
D|-x----x---x---/7ó-5/7-4/5-4----x----x---x---/7ó5/7-4/5/4-/-7---------------|
A|-9--/-5---5-/--x--x-x-x-x-x----9--/-5---5-/--x-x-x-x-x-x---x---------------|
E|--------------/7ó-5/7-4/5-4-----------------/7-5/7-4/5/4-/-7---------------|

Into backing chords (Jonah)
[ Tab from: http://www.guitaretab.com/f/far/27697.html ]
e|---------------------------------------------------------------------------|
B|---------------------------------------------------------------------------|
G|---------------------------------------------------------------------------|
D|-0-0-0h1-111-p-0-0-0h1-111-------------------------------------------------|
A|-0-0-0h1-111-p-0-0-0h1-111-------------------------------------------------|
E|-0-0-0h1-111-p-0-0-0h1-111-------------------------------------------------|

Verse and outro

e|---------------------------------------------------------------------------|
B|---------------------------------------------------------------------------|
G|-7-7-7-7-7-7-7-7-7-7-7-7-7-7-7-7777777/999999999---------------------------|
D|-5-5-5-5-5-5-5-5-5-5-5-5-5-5-5-xxxxxxx-xxxxxxxxx---------------------------|
A|-5-5-5-5-5-5-5-5-5-5-5-5-5-5-5-5555555/777777777---------------------------|
E|-5-5-5-5-5-5-5-5-5-5-5-5-5-5-5---------------------------------------------|

Thatís it. Itís a really easy song but people have botched it before.
The song flow is really easy to figure out so figure it out while listening to the cd. 
might me some small differences during the main intro riff while itís being played in the 
of the second verse.

enjoy

| /  slide up
| \  slide down
| h  hammer-on
| p  pull-off
| ~  vibrato
| +  harmonic
| x  Mute note
===============================================================================
Related for Really Here tab