Guitaretab - guitar tabs
Song name
# A B C D E F G H I J K L M N O P Q R S T U V W X Y Z

Far - What Ive Wanted To Say tab

-------------------------------------------------------------------------------
                        What Iíve Wanted To Say - Far
-------------------------------------------------------------------------------
Tabbed by: holy ghost 
Email: graydenlennonday@yahoo.com

Band: Far
Song: What Iíve Wanted To Say
Album: Tin Cans With Strings To You

Tuning: E A D G b e

Intro-
Hit harmonics on these frets and let ring-out...
e|---------------------------------------------------------------------------|
B|---------------------------------------------------------------------------|
G|---5------------5----------------------------------------------------------|
D|---------------------------------------------------------------------------|
A|----------4-----------4----------------------------------------------------|
E|---------------------------------------------------------------------------|

Pre-verse/outro                               play twice more then...

e|---------------------------------------------------------------------------|
B|---------------------------------------------------------------------------|
G|---------------------------------------------------------------------------|
D|------------9/10-10-10-10-9-9-9--9/10-10-10-10-9-9-9-----------------------|
A|-6-66-6-----7/8ó-8--8--8--7-7-7ó-7/8--8--8--8--7-7-7---6-------------------|
E|-4-44-4-0--0--------------------0----------------------4-0-----------------|

Hereís the verse (the ^ís after the g# chord are counts)
Play twice before chorus
[ Tab from: http://www.guitaretab.com/f/far/84845.html ]
e|---------------------------------------------------------------------------|
B|---------------------------------------------------------------------------|
G|---------------------------------------------------------------------------|
D|---------------------------------------------------------------------------|
A|-5/6^^^-5/6^^^-5/6^^^-3^^^-------------------------------------------------|
E|-3/4^^^-3/4^^^-3/4^^^-1^^^-------------------------------------------------|

Hereís the chorus             ...then repeat the beginging of chorus
e|---------------------------------------------------------------------------|
B|---------------------------------------------------------------------------|
G|-6666-7777-9999999999------------------------------------------------------|
D|-6666-7777-9999999999------------------------------------------------------|
A|-4444-5555-7777777777--6666-6----------------------------------------------|
E|-4444-5555-7777777777--4444-4-0--------------------------------------------|

Interlude palm muted and repeat a bunch of times.
e|---------------------------------------------------------------------------|
B|---------------------------------------------------------------------------|
G|---------------------------------------------------------------------------|
D|---------------------------------------------------------------------------|
A|-5/6-66--------------------------------------------------------------------|
E|-3/4-44--------------------------------------------------------------------|

Just listen to it and itís east to figure out.

This tab is 95% accurate...enjoy!

| /  slide up
| \  slide down
| h  hammer-on
| p  pull-off
| ~  vibrato
| +  harmonic
| x  Mute note
===============================================================================

Related for What Ive Wanted To Say tab