Song name
# A B C D E F G H I J K L M N O P Q R S T U V W X Y Z

Faraquet - The Missing Piece tab

---------------------------------------------------------------------------
                   The Missing Piece - Faraquet
-------------------------------------------------------------------------------
Tabbed by: kk_punker
Email: kk_punker@hotmail.com

Tuning: Standard

This is the main riff I'll try to tab the other guitar parts too

e|------------------------------------------------------------------------1---------|
B|---------------------------------------3----1----3-----5------3-------------------|
G|----------2---------3h5-----3-----------------------------------------------------|
D|--3h5--------3--------------------------------------------------------------------|
A|----------------------------------------------------------------------------------|
E|----------------------------------------------------------------------------------|
Tap to rate this tab
 
# A B C D E F G H I J K L M N O P Q R S T U V W X Y Z