Song name
# A B C D E F G H I J K L M N O P Q R S T U V W X Y Z

Faraquet - Cut Self Not tab

Faraquet - Cut Self Not
From 'The View From This Tower'
dischord records

Tabbed by: Orestis Nalmpantis
email: oreztis@yahoo.gr


0:00
e------------------------------------|
B------------------------------------|
G------------------------------------|
D------------------------------------|
A-5-3p0-7-3p0-5-5-5--3p0-7-3p0-5-5-5-|
E------------------------------------|
Bass intro


0:03 DIRTY
e--------------------------|
B--------------------------|
G--------------------------|
D-------0---------0h3p0----|
A---3--------3p0-----------| 
E-1------------------------|


0:11 DIRTY
e------------------------------------|----|
B------------------------------------|----|
G------0-2-----------0-2-------------|--0-|
D-----------3-0-----------3-0-2~-----|--0-|
A---3--------------3-----------------|--0-|
E-1-------------1--------------------|----|

0:21 clean            0:25clean
e------------------|----------------------|
B------------------|-----3^4-1-0----------|
G------------------|---2----------2---- --|
D--2--2-----2h3----|-4--------------4-3---|
A------------------|----------------------|
E-2--2---2h3-------|----------------------|
  

0:28    clean                          
e-------------------------------------|
B---------3---------3p1---------------|
G------2---2------------ 2----0h2-----|
D---3--------3---3---------3-------3--|
A-1------------1--------------3-------|
E-------------------------------------|

DIRTY
e--------------------------|
B--------------------------|
G--------------------------|
D-------0---------0h3p0----|
A---3--------3p0-----------| 
E-1------------------------|

 0:39
e|-------------------|
B|-3----------3------|
G|---2----3/5---5----|
D|----3~~------------|
A|-------------------|
E|-------------------|


0:28    clean                          
e------------------------------------|
B--------3---------3p1---------------|
G------2---2------------2-----0h2----|
D---3--------3---3--------3-------3--|
A-1------------1------------3--------|
E------------------------------------|





DIRTY
e---------------------------|
B---------------------------|
G---------------------------|
D-------0---------0h3p0-----|
A---3--------3p0------------| 
E-1-------------------------|


0:51 clean
e--------------------------------|  
B--------------------------------|
G-7---5---4---5---x-6--7---4---5-|
D-0---5---0---5---x-0--4---4---5-|
A-5---3---2---3---x-4--5---2---3-|
E--------------------------------|

clean
e-------------------------------------------|
B---------3---------3p1---------------------|
G------2---2-----2------2h3------0h2--------|
D---3--------3--------------------------3---|
A-1------------1---------------3----------3-|
E-------------------------------------------|


e-------------------------------------------------------|
B---------3---------3p1---------------------------------|
G------2---2-----2------2h3----0h2----------------------|
D---3--------3-------------------------3-0---2----3--2--|
A-1------------1--------------3-------------------------|
E-------------------------------------------------------|

0:28    clean                          
e---------------------------------|
B---------3---------3p1-----------|
G------2---2------------ 2---0h2--|
D---3--------3---3--------3------3|
A-1------------1------------3-----|
E---------------------------------|

DIRTY
e-------------------------|
B-------------------------|
G-------------------------|
D-------0---------0h3p0---|
A---3--------3p0----------| 
E-1-----------------------|


 DIRTY
e-----------------------------------|----|
B-----------------------------------|----|
G------0-2-----------0-2------------|--0-|
D-----------3-0-----------3-0-2~----|--0-|
A---3--------------3----------------|--0-|
E-1-------------1-------------------|----|


clean              clean
e------------------|------------------------|
B------------------|-----3^4-1-0------------|
G------------------|---2-----------2--------|
D--2--2-----2h3----|-4----------------4-3---|
A------------------|------------------------|
E-2--2---2h3-------|------------------------|
  

1:58
e--------------------------|
B--------------------------|
G-----------------------2--|
D-----------------------0--|
A---2-3/7-3\2-0---------0--|
E-2-----------------2-3-3--|


2:02

e---------------------------------------|
B---------------------------------------|
G-----0h2----------0h2------------------|
D---3-----3p0----3-----3p0-----2p0------|
A-1------------1------------3----------0|
E---------------------------------------|

e-----------------------------------|
B-----------------------------------|
G-----0h2----------0h2---------2----|
D---3-----3p0----3-----3p0----------|
A-1------------1------------3-------|
E-----------------------------------|

e-----------------------------------|
B------------------------3----3-----|
G------2-----------2-3-5------5-----|
D---3--0--------3-------------4-----|
A-1------------1--------------------|
E-----------------------------------|


e---------------------------------|
B---------3---------3p1-----------|
G------2---2------------ 2---0h2--|
D---3--------3---3--------3------3|
A-1------------1------------3-----|
E---------------------------------|

dirty
e--------------------------|
B--------------------------|
G--------------------------|
D-------0---------0h3p0----|
A---3--------3p0-----------| 
E-1------------------------|

clean
e---------------------------------------|
B---------------------------------------|
G-----0h2----------0h2------------------|
D---3-----3p0----3-----3p0-----2p0------|
A-1------------1------------3---------0-|
E---------------------------------------|

e-----------------------------------|
B-----------------------------------|
G-----0h2----------0h2---------2----|
D---3-----3p0----3-----3p0----------|
A-1------------1------------3-------|
E---------------------------------- |

e------------------------------------------------------------------|
B----------------------------3---3--------------5------------------|
G------2-------------2-3-5-------5---5--7--9----7-----7\--5---3----|
D---3--0--------3----------------4--------------6-------------2----|
A-1------------1---------------------------------------------------|
E------------------------------------------------------------------|



2:36
e--------1---|
B--------3---|
G--3--2--3---|
D--0--0------|
A--1--0------|
E------------|

 Please email comments and corrections.
Tap to rate this tab
 
# A B C D E F G H I J K L M N O P Q R S T U V W X Y Z