Song name
# A B C D E F G H I J K L M N O P Q R S T U V W X Y Z

Farewell Continental - Seasoned Veterans tab

http://farewellcontinental.com/

		     Seasoned Veterans - Farewell Continental
-------------------------------------------------------------------------------
Tabbed by: BewareOfColbert
Tuning: Standard
I just saw these guys play at SanFran's Bottom of the Hill on 6-10-11. I was about a 
foot and a half away from Justin throughout the show so I know this is accurate (By the 
way, Kari is very pretty.

Intro
e|-----------------------------------------------------------------------------|
B|-----------------------------------------------------------------------------|
G|-----------------------------------------------------------------------------|
D|-9-9-9-9-9-9-9-9-------------------------------------------------------------|
A|7-7-7-7-7-7-7-7--------------------------------------------------------------|
E|-----------------------------------------------------------------------------|

Verses: "Seasoned veterans of the nothing lasts..." Keep repeating this until the power-chord part

e|---------------------------------------------------------------------------|
B|---------------------------------------------------------------------------|
G|---------------------------------------------------------------------------|
D|-9-9-9-9-9-9-9-9-9-9-9-----------------------------------------------------|
A|--------7-7-7-7-7-7-7-7----------------------------------------------------|
E|7-7-9-9--------------------------------------------------------------------|

"Seasoned veterans found we got a match" Repeat this to the end.
e|-----------------------------------------------------------------------------|
B|-----------------------------------------------------------------------------|
G|4------6------9--------------------------------------------------------------|
D|4-(4x)-6-(4x)-9-(8x)---------------------------------------------------------|
A|2------4------7--------------------------------------------------------------|
E|-----------------------------------------------------------------------------|

End on
e|---------------------------------------------------------------------------|
B|---------------------------------------------------------------------------|
G|9--------------------------------------------------------------------------|
D|9--------------------------------------------------------------------------|
A|7--------------------------------------------------------------------------|
E|---------------------------------------------------------------------------|

************************************

| /   slide up
| \   slide down
| h   hammer-on
| p   pull-off
| ~   vibrato
| +   harmonic
| x   Mute note
| b   Bend
| pb  Pre-bend
| br  Bend release
| pbr Pre-bend release
| brb Bend release bend
Tap to rate this tab
 
# A B C D E F G H I J K L M N O P Q R S T U V W X Y Z