Song name
# A B C D E F G H I J K L M N O P Q R S T U V W X Y Z

Farewell Flight - Cruel tab

Help us improve GuitareTab! Take a short survey!
Cruel from FF's cd "Northern"


[intro/verse riff.] (repeat 2x for the intro)
e|-------------------------------------------------------|
B|-------------------------------------------------------|
G|-------------------------------------------------------|
D|------0------0----0------0------0---0------0------0---0|
A|2--2----2--2----2---0--0---0--0---0---5--5---5--5---5--|
E|-------------------------------------------------------|

e|-------------------------|
B|-------------------------|
G|-------------------------|
D|-------0---------0-------|
A|-------------------0--1--|
E|--3--3-----3--3----------|

(chorus)

G            A                        Bm                   F#
I think both feelings are exactly the same as one another, especially
                    G                A                       Bm
when one considers. They both have a crippling affect on our brain our
                     F#
heart our body. It's all the same in the end.

(during this section play the verse riff)this was the only part Tim plays that i can 
out. so deal with it haha
Guitar 2

e|9---10------------9--10---------9--10----------9--10-------12---14-|
B|-------10---------------10-------------10------------10------------|
G|-----------9s11------------9s7------------9s11---------------------|
D|---------------------------------------------------------12--------|
A|-------------------------------------------------------------------|
E|-------------------------------------------------------------------|

(chorus)
G            A                                     Bm
I think both feelings are exactly the same as when we were little kids.
    F#                     G              A
The only difference is that we all have a crippling affect on our
Bm                                   F#
brains our hearts our bodies. We're all the same in the end.


(outro)

e|-3--3--2--|
B|-3--3--3--|
G|-0--0--2--|
D|-0--0--0--|
A|-2--1--x--|
E|-3--3--x--|

www.farewellflight.com
Related for Cruel tab