Song name
# A B C D E F G H I J K L M N O P Q R S T U V W X Y Z

Farewell My Love - My Perfect Thing tab

Song Title: My Perfect Thing
Artist: Farewell, My Love
Album: Gold Tattoos

http://standbyrecords.net/artists/farewellmylove/

Tuning

D Standard

Low To High DGCFAD


Key:
PM= Palm Mute
B= Bend
B()= Bend to match specified fret
PH= Pinch Harmonic or Artificial Harmonic
/= slide
^= Hammer on or Pull off
~= vibrato
x= muted
*
*= Repeat sign



Intro
                                                       First ending
|------------------|----------------|-----------------|------------------|
|------------------|----------------|-----------------|------------------|
|*-----------------|----------------|-----------------|-----------------*|
|--5-5-5-5-5-5-5-5-|-5-5-5----------|-----------------|------------------|
|*-3-3-3-3-3-3-3-3-|-2-2-2-5-5-5-5-3|-3-3-3-3-3-3-3-3-|-3-3-3-3-3-3-3-3-*|
|------------------|-------3-3-3-3-1|-1-1-1-1-1-1-1-1-|-1-1-1-1-1-1-1-1--|

 Second Ending
|-----------------|
|-----------------|
|-----------------|
|-----------------|
|-5-5-5-5-5-5-5-5-|
|-3-3-3-3-3-3-3-3-|

 Verse                                                      First ending
|------------------|----------------|-----------------|--------------------|
|------------------|----------------|-----------------|--------------------|
|*-----------------|----------------|-----------------|--------------------|
|--5-5-5-5-5-5-5-5-|-5-5-5----------|-----------------|--------------------|
|*-3-3-3-3-3-3-3-3-|-2-2-2-5-5-5-5-3|-3-3-3-3-3-3-3-3-|-3-3-3-3-3-3-3-3----|
|------------------|-------3-3-3-3-1|-1-1-1-1-1-1-1-1-|-1-1-1-1-1-1-1-1----|
    PM------------    PM--  PM----   PM------------------------------------|

Second Ending
|-------------------|
|-------------------|
|-------------------|
|-------------------|
|-5-5-5-5-5-5-5-5---|
|-3-3-3-3-3-3-3-3---|
 PM-----------------|

  Chorus                                                     First ending
|------------------|----------------|-----------------|------------------|
|------------------|----------------|-----------------|------------------|
|*-----------------|----------------|-----------------|-----------------*|
|--5-5-5-5-5-5-5-5-|-5-5-5----------|-----------------|------------------|
|*-3-3-3-3-3-3-3-3-|-2-2-2-5-5-5-5-3|-3-3-3-3-3-3-3-3-|-3-3-3-3-3-3-3-3-*|
|------------------|-------3-3-3-3-1|-1-1-1-1-1-1-1-1-|-1-1-1-1-1-1-1-1--|

 Second Ending
|-----------------|
|-----------------|
|-----------------|
|-----------------|
|-5-5-5-5-5-5-5-5-|
|-3-3-3-3-3-3-3-3-|


  Verse 2                                                     First ending
|------------------|----------------|-----------------|--------------------|
|------------------|----------------|-----------------|--------------------|
|*-----------------|----------------|-----------------|--------------------|
|--5-5-5-5-5-5-5-5-|-5-5-5----------|-----------------|--------------------|
|*-3-3-3-3-3-3-3-3-|-2-2-2-5-5-5-5-3|-3-3-3-3-3-3-3-3-|-3-3-3-3-3-3-3-3----|
|------------------|-------3-3-3-3-1|-1-1-1-1-1-1-1-1-|-1-1-1-1-1-1-1-1----|
    PM------------    PM--  PM----   PM------------------------------------|
 Second Ending
|-----------------|---------|
|-----------------|---------|
|-----------------|---------|
|-----------------|-5-5-5---| rest 2 measures
|-5-5-5-5-5-5-5-5-|-3-3-3---|
|-3-3-3-3-3-3-3-3-|---------|
  PM------------------------|

|------------------|----------------|-----------------|--------------------|
|------------------|----------------|-----------------|--------------------|
|*-----------------|----------------|-----------------|--------------------|
|--5-5-5-5-5-5-5-5-|-5-5-5----------|-----------------|--------------------|
|*-3-3-3-3-3-3-3-3-|-2-2-2-5-5-5-5-3|-3-3-3-3-3-3-3-3-|-5-5-5-5-5-5-5-5----|
|------------------|-------3-3-3-3-1|-1-1-1-1-1-1-1-1-|-3-3-3-3-3-3-3-3----|
    PM------------    PM--  PM----   PM------------------------------------|

 Chorus                                                     First ending
|------------------|----------------|-----------------|------------------|
|------------------|----------------|-----------------|------------------|
|*-----------------|----------------|-----------------|-----------------*|
|--5-5-5-5-5-5-5-5-|-5-5-5----------|-----------------|------------------|
|*-3-3-3-3-3-3-3-3-|-2-2-2-5-5-5-5-3|-3-3-3-3-3-3-3-3-|-3-3-3-3-3-3-3-3-*|
|------------------|-------3-3-3-3-1|-1-1-1-1-1-1-1-1-|-1-1-1-1-1-1-1-1--|

 Second Ending
|-----------------|
|-----------------|
|-----------------|
|-----------------|
|-5-5-5-5-5-5-5-5-|
|-3-3-3-3-3-3-3-3-|


Solo
|--------12----------------------------------------------|
|-/13-15----12~-/12-13-15------------12------------------|
|-------------------------14~-/12-14----12~-10/12-14-10~-|
|--------------------------------------------------------|
|--------------------------------------------------------|
|--------------------------------------------------------|

|--------12-----------------------------------12--15--12-------|
|-/13-15----12~-/12-13-15------------12-------15B(17)-15B(17)~-|
|-------------------------14~-/12-14----12~--------------------|
|--------------------------------------------------------------|
|--------------------------------------------------------------|
|--------------------------------------------------------------|

|---------------------------------15-13-12----/17-15-15~-|
|-------5-----------------------15---------13------------|
|-/5~-7-7B(9)-7^5-----5(PH)--14--------------------------|
|-----------------7~-------------------------------------|
|--------------------------------------------------------|
|--------------------------------------------------------|

|-15^13^12----------15^13^12----------15^13^12--------------|
|----------15^13^12----------15^13^12----------15^13^12-13~-|
|-----------------------------------------------------------|
|-----------------------------------------------------------|
|-----------------------------------------------------------|
|-----------------------------------------------------------|

|-13-13-13-15-15-15-17-17-17-19-19-19-20~-22-19-15-17B(19)R(17)-17~-|
|-------------------------------------------------------------------|
|-------------------------------------------------------------------|
|-------------------------------------------------------------------|
|-------------------------------------------------------------------|
|-------------------------------------------------------------------|

|-20~-22-22B(24)-22-17~-19-20~-15~-----------15-----------
|----------------------------------15B(17)-13~----15B(17)-
|---------------------------------------------------------
|---------------------------------------------------------          <-- Played after the last note
|---------------------------------------------------------                 |
|---------------------------------------------------------                 |
                                                                           |
                                                          |-------------- _|
                                                          |--------------
                                                          |-5-5-5/7-7-7-7
                                                          |-x-x-x-x-x-x-x
                                                          |-3-3-3/5-5-5-5
                                                          |--------------


Bridge or Chorus
|-----------------------------------------| Play 4x
|-----------------------------------------|
|7-7-7-7-7-7-7-7-14-14-14-12-12-11-11-11-*|
|x-x-x-x-x-x-x-x-x--x--x--x--x--x--x--x---|
|5-5-5-5-5-5-5-5/12-12-12-10-10-9--9--9--*|
|-----------------------------------------|

|-17----------17----------15-------14--------------| Play 3x
|----15-15-15----15-15-15----15-15---15-15-15-15---|
|-------------------------------------------------*|
|--------------------------------------------------|
|-------------------------------------------------*|
|--------------------------------------------------|


|-17------15------14-------|
|----------------------17~-|
|--------------------------|
|--------------------------|
|--------------------------|
|--------------------------|

Final Chorus                                         First ending
|----------------|----------------|----------------|------------------|
|----------------|----------------|----------------|------------------|
|----------------|----------------|----------------|-----------------*|
|-9-9-9-9-9-9-9-9|-9-9-9----------|----------------|------------------|
|-7-7-7-7-7-7-7-7|-6-6-6-9-9-9-9-7|-7-7-7-7-7-7-7-7|-7-7-7-7-7-7-7-7-*|
|----------------|-------7-7-7-7-5|-5-5-5-5-5-5-5-5|-5-5-5-5-5-5-5-5--|

 Second ending
|-----------------|
|-----------------|
|-----------------|
|-----------------|
|-9-9-9-9-9-9-9-9-|
|-7-7-7-7-7-7-7-7-|

Ending
|----------------|----------------|----------------|--------------------------------------|
|----------------|----------------|----------------|--------------------------------------|
|----------------|----------------|----------------|--------------------------------------|
|-9-9-9-9-9-9-9-9|-9-9-9----------|----------------|------------------9-------------------|
|-7-7-7-7-7-7-7-7|-6-6-6-9-9-9-9-7|-7-7-7-7-7-7-7-7|-7-7-7-7-7-7-7-7--7-----9----11----7--|
|----------------|-------7-7-7-7-5|-5-5-5-5-5-5-5-5|-5-5-5-5-5-5-5-5--------7----9-----5--|
Bits of feedback
Tap to rate this tab
# A B C D E F G H I J K L M N O P Q R S T U V W X Y Z