Song name
# A B C D E F G H I J K L M N O P Q R S T U V W X Y Z

Farewell To Freeway - Sound Minds tab

Alright i found this  band from a victory records sampler. pretty decent band. the song 
sound minds. i figured out the intro, maybe some one wants to figure out the rest...? o 
its in drop c and i didnt put the exact number of strums on the palm mute. enjoy

h=hammer on
.=palm mute
b=bend

D-------------------------------------------------------------------------|
A-------------------------------------------------------------------------|
F-10-10-10-10-------------------------5h7---------------------------------|
C-10-10-10-10-88-77-0-00000000-----5h7---5--88-1010-77-88-----------------|
G-8--8--7--7--88-77-0-00000000--5h8---------88-1010-77-88-----------------|
C-------------88-77-0-00000000--------------88-1010-77-88--------11b12----|
                      ........

D------------------------------------------------------------------------|
D---------13-------------------------------------------------------------|
F---------15b17----------------------------------------------------------|
C------------------------------------------------------------------------|
G------------------------------------------------------------------------|
C------------------------------------------------------------------------|

You do this after the first chorus a couple times
Tap to rate this tab
# A B C D E F G H I J K L M N O P Q R S T U V W X Y Z