Song name
# A B C D E F G H I J K L M N O P Q R S T U V W X Y Z

Farewell To Freeway - Sound Minds tab

i didnt figure out this whole tab, i just finished another one that only had the intro, 
i copied and pasted haha. its in drop c by the way.


                             SOUND MINDS - FAREWELL TO FREEWAY
Tuning:DROP C

INTRO

D-------------------------------------------------------------------------|
A-------------------------------------------------------------------------|
F-10-10-10-10-------------------------5h7---------------------------------|
C-10-10-10-10-88-77-0-00000000-----5h7---5--88-1010-77-88-----------------|
G-8--8--7--7--88-77-0-00000000--5h8---------88-1010-77-88-----------------|
C-------------88-77-0-00000000--------------88-1010-77-88--------11b12----|
                      ........

D------------------------------------------------------------------------|
A---------13-------------------------------------------------------------|
F---------15b17----------------------------------------------------------|
C------------------------------------------------------------------------|
G------------------------------------------------------------------------|
C------------------------------------------------------------------------|


CHORUS
(FIGURE OUT THE STRUMMING)

D|--8-----------------------------------------------------------------------|
A|--10----------------------------------------------------------------------|
F|--10----------------------------------------------------------------------|
C|--8------------------------0000-------------------------------------------|
G|--8------------------------00007777888810101010---------------------------|
C|--8------------------------0000000000000000-------------------------------|
   "IM BEATING UP MYSELF TOO MUCH"   (THOSE ARE TENS AT THE END THERE)

BREAKDOWN

D|--------------------------------------------------------------------------|
A|--------------------------------------------------------------------------|
F|--------------------------------------------------------------------------|
C|--------------------------------------------------------------------------|
G|-0-0-000--000--0-0-000--8-8-7-7-------------------------------------------|
C|-0-0-000--000--0-0-000--8-8-7-7-------------------------------------------|
   . . ...  ...  . . ...

BREAKDOWN PART 2 (WHERE IT SLOWS DOWN)
SAME THING, EXCEPT THE ALL THE OPENS ARE REPLACED WITH

e|--------------------------------------------------------------------------|
B|--------------------------------------------------------------------------|
G|--------------------------------------------------------------------------|
D|--------------------------------------------------------------------------|
A|-0------------------------------------------------------------------------|
E|-1------------------------------------------------------------------------|


KEY

b=bend
h=hammer on
p=pull off
.=palm mute

yea so thats pretty much the song. its not 100% perfect but its good enough if your 
to jam to this.
Tap to rate this tab
# A B C D E F G H I J K L M N O P Q R S T U V W X Y Z