Song name
# A B C D E F G H I J K L M N O P Q R S T U V W X Y Z

Farin Urlaub Racing Team - Niemals tab

Intro and first verse. and then during the bridges

e|3---2---3-------|3---2---3-------|
h|----------------|----------------|
g|----------------|----------------|
D|----------------|----------------|
A|----------------|----------------|
E|----------------|----------------|


e|3---2---3-------|3---5---2-------|
h|----------------|----------------|
g|----------------|----------------|
D|----------------|----------------|
A|----------------|----------------|
E|----------------|----------------|


e|--------2---3---|0---------------|
h|0-00-0----------|----------------|
g|----------------|----------------|
D|----------------|----------------|
A|----------------|----------------|
E|----------------|----------------|



Kinobert
Tap to rate this tab
# A B C D E F G H I J K L M N O P Q R S T U V W X Y Z