Song name
# A B C D E F G H I J K L M N O P Q R S T U V W X Y Z

Farin Urlaub - Unter Wasser tab

 e -----------------------------------------------|
 h -1--121--111-21--1--121--4444444---------------|
 g -----------------------------------------------|
 d -----------------------------------------------|
 a -----------------------------------------------|
 e -----------------------------------------------|        x2

 e -3--343--333-43--3-343-666666------------------|
 h -----------------------------------------------|
 g -----------------------------------------------|
 d -----------------------------------------------|
 a -----------------------------------------------|
 e -----------------------------------------------|        x2

 Bass

 g -----------------------------------------------|
 d -----------------------------------------------|
 a -3-33-3-3333333-3-33---------------------------|
 e --------------------4-444444-------------------|        x2

und dann als Begleitung mit dem Schlagzeug zur Strophe...

Komm lass dich von mir entfhren,
in meinen Traum von letzter Nacht.
Gib mir die Hand, ich muss dich spren.
Fast wr ich nicht mehr aufgewacht.


Es war so klar.
Ein Traum und doch wahr.


Cm        G#                D#
In meinem Traum steh ich am Meer,
          B
mit dem Gefhl, als ob es gleich zu Ende wr.
Cm           G#             D#
Ich seh mich um, ich bin allein.
          D#
Ich nehme Anlauf und dann springe ich hinein.

 e -----------------------------------------------|
 h -1--121--111-21--1--121--4444444---------------|
 g -----------------------------------------------|
 d -----------------------------------------------|
 a -----------------------------------------------|
 e -----------------------------------------------|        x2

 g -----------------------------------------------|
 d -----------------------------------------------|
 a -3-33-3-3333333-3-33---------------------------|
 e --------------------4-444444-------------------|        x2

wieder die ganze Strophe durch


Als htt es nur auf mich gewartet,
als ob das Meer ein Raubtier wr.
Ich hab's gesehen -
grausam und doch schn.


Cm        G#                D#
In meinem Traum steh ich am Meer,
           B
mit dem Gefhl, als ob es gleich zu Ende wr.
Cm           G#             D#
Ich seh mich um, ich bin allein.
          B                              G#
Ich nehme Anlauf und dann springe ich hinein,
                       nur Bass und Schlagzeug
und gehe unter wie ein Stein,
G#                               Gm
doch unter Wasser kann man nicht schreien...


B
Ich wollte jeden Tag so leben, als ob's der Letzte wr.
    Cm
Die Welt aus ihren Angeln heben - jetzt ertrinke ich im Meer.
B
Ich kmpfte wie ein kleiner Junge und dann habe ich gelacht,
Cm                         Gm                              G#
Wasser fllte meine Lunge, davon bin ich schlielich aufgewacht.

Cm         G#               D#
In meinem Traum steh ich am Meer,
           B
mit dem Gefhl, als ob es gleich zu Ende wr.
Cm           G#             D#
Ich seh mich um, ich bin allein.
              B
Ich nehme Abschied und dann springe ich hinein.


Cm          G#              D#
Zum letzten Mal seh ich das Meer.
            B
Es sieht so aus, als ob es nie zu Ende wr.
Cm           G#                  D#
Das Meer ist tief, das Meer ist gro,
         B
und der Himmel ist fr immer wolkenlos.


Ich find das das so ganz okay is, wie ich das gmacht habe...
    by Nurri
Tap to rate this tab
# A B C D E F G H I J K L M N O P Q R S T U V W X Y Z