Song name
# A B C D E F G H I J K L M N O P Q R S T U V W X Y Z

Farin Urlaub - Krimel tab

Hey ihrs,

hab mir mal zeit genommen und die tabs für den krümel song aufgeschrieben.

Stimmung : normal ( E A D g h e )

Intro

|-------------------------|
|----4---4---------4--4-4-|
|-----4---4--4------4--4--|
|---6---6--6------4--4--4-|
|-------------------------|
|-------------------------|

Strophe

|---------------------------|
|---9---7---12---10---9---7-|
|---8---6---11---9----8---6-|
|---6---4---9----7----6---4-|
|---------------------------|
|---------------------------|

den rythmus bekommt ihr schnell raus, die ersten 2 akkorde werden am anfang öfters 
hört euch einfach krümel an dann klappt das

Liebe Grüße

morgoth

P.S.: Farin Urlaub 4 ever :)
Tap to rate this tab
# A B C D E F G H I J K L M N O P Q R S T U V W X Y Z