Guitaretab - guitar tabs
Song name
# A B C D E F G H I J K L M N O P Q R S T U V W X Y Z

Farnham John - Burn For You tab

Song        : Burn For You
Artist      : Superman Is Dead
Tabbed by   : yoos
Email       : yoos_yoes@yahoo.com
Blog        : yoosyoes.blogspot.com



Fig1
e|------------|
B|--------8-7-|
G|------7-----|
D|----7-------|
A|--5---------|
E|------------|

Fig2
e|------3-------------------3----------------|
B|--------3-------7-----------3-------5------|
G|----4-----4-------7-----4-----4-------6----|
D|--------------7-----7-------------7-----7--|
A|------------5------------------------------|
E|--3-------------------3---------5----------|

Fig3
e|-------------------------------------------------------------------|
B|-------------------------------------------------------------------|
G|-------------------------------------------------------------------|
D|-------------------------------------------------------------------|
A|--------5-5-5-4-4-----------------------5-5-5-4-4-7-7-7-5-5-5-4-4--|
E|--7-7-7-----------5-5-5-3-3-3-5-5-7-7-7----------------------------|

e|------------------------------------------------------------------|
B|------------------------------------------------------------------|
G|------------------------------------------------------------------|
D|------------------------------------------------------------------|
A|--------5-5-5-4-4-----------------------5-5-5-4-4------7-7-7-5-5--|
E|--7-7-7-----------5-5-5-3-3-3-5-5--3--3-----------5--5------------|


B5          A5    G5                           D5
Itís been a while, we sat here with a glass of wine
         A5             B5       A5 G5
We donít seem much happier today
G5           A5
Itís hard to talk
D5     B5                 G5
And to look at you in the eye
G5        A5
Donít you knowÖ?
[ Tab from: http://www.guitaretab.com/f/farnham-john/6314.html ]
          G5                  A5
I have so many things I wanna say
        D5               B5
I got a story of million years
          G5               A5                 D5      Fig1
But in my head it hurts so much couldnít understand it
       G5                A5
Try to change who I am today
      D5                     B5
Have enough just to hurt you more
     G5                 A5
Baby all I wanna do, is burn for you

     D5          A5
Baby burn, burn, burn for you
   B5              F#5
No matter when the sun goes down
(Fig2) G5        D5                G5              A5               
All the things I need to say, Iíll say it when Iím burning
D5          A5
Burn, burn, burn for your love
     B5              F#5
Itís worth it in the name of God
    G5                   D5
The strongest words from my own heart
  G5             A5
I wonder if itís too late now!

D5  A5 G5 B5 A5 C#5
D5  A5 G5 B5 A5 C#5
B5  F#5 E5 F#5 G5 F#5 E5
B5  F#5 E5 F#5 G5 A5 B5

B5         A5   G5                        D5
Across the line, between love and hate we thru
D5      A5             B5          A5 G5
Gave so much for me to think about
G5           A5   D5      B5              G5
I found itís hard, to put all my trust in you
G5        A5
Donít you know?

               G5                 A5
Youíve hurt me so much I couldnít say
                 D5                  B5
Youíve blamed me for things I didnít do
           G5                   A5               D5      Fig1
Donít even know that I cook you breakfast in the morning
                G5                   A5
And when youíre drunk baby you donít care
          D5                 B5
This is a game I donít wanna play
           G5                   A5
Youíre breaking my heart into a thousand piece



(Tau kan fig3 dimainin dimana!!!)
req by chukiL (http://profiles.friendster.com/45736426)
Related for Burn For You tab