Song name
# A B C D E F G H I J K L M N O P Q R S T U V W X Y Z

Farside - Ill Wait Today tab

-------------------------------------------------------------------------------
                             I'LL WAIT TODAT - Farside
-------------------------------------------------------------------------------
Tabbed by: Paul
E-mail: Paultri3@gmail.com

Tuning: Standard

This is my first tab ever posted. I do know the song pretty good on guitar though.  This
sounds good to me.  I'll try to indicate the rhythm of the chords but... Whatcha get is
whatcha get.  You can figure it out. This sucks. a quarter of the way through I fin a 
damn template to make it a million times easier.>:[]

Intro/chorus

E-0--0-0-0-0-0-0-0-0-0--0--0-0--0-0-0-0-|
B-0--0-0-0-0-0-0-0-0-0--0--0-0--0-0-0-0-|
G-2--2-2-4-2-4s6s4-2-2--7--7-7--7-7-6-4-|  X2
D-2--2-2-4-2-4s6s4-2-2--7--7-7--7-7-6-4-|
A-0--0-0-2-0-2s4s2-0-0--5--5-5--5-5-4-2-|
E---------------------------------------|

E----2---5--5-5--5h7p5|       
                        
                    
Tap to rate this tab
# A B C D E F G H I J K L M N O P Q R S T U V W X Y Z