Song name
# A B C D E F G H I J K L M N O P Q R S T U V W X Y Z

Farside - Audience tab

-------------------------------------------------------------------------------
                             Audience - Farside
-------------------------------------------------------------------------------
Tabbed by: Rawker1
E-mail:vvr1975@hotmail.com

Tuning:standard

Pretty straight forward song. One if the best bands! These are the chords, listen to the 
song for the melody.Should be easy to figure out.I know the octave chords on the verse 
aren't perfect but its close. Enjoy!

Intro
e|---------------------------------------------------------------------------|
B|------------------------------------------ --------------------------------|
G|---4-4-4-4-4--2--6-------6-------6-------6---------------------------------|
D|---4-4-4-4-4--2--6-------6-------6-------6---------------------------------|
A|---2-2-2-2-2--0--4-------4-------4-------4---------------------------------|
E|---------------------------------------------------------------------------|

Verse
e|---------------------------------------------------------------------------|
B|---------------------------------------------------------------------------|
G|---9-9-/-7---6-4-4-2-2---------14-13-11-11-11-13-9--9---6-4-4-2-2----------|
D|---9-9-/-7---6-4-4-2-2----------------------------------6-4-4-2-2-Repeat 2x|
A|---7-7-/-5---4-2-2-0-0---------12-11--9--9--9-11-7--7---4-2-2-0-0----------|
E|---------------------------------------------------------------------------|

e|---------------------------------------------------------------------------|
B|---------------------------------------------------------------------------|
G|---4-4-4-4-4--2--4---2-----------------------------------------------------|
D|---4-4-4-4-4--2--4---2-Repeat 4x-------------------------------------------|
A|---2-2-2-2-2--0--6---0-----------------------------------------------------|
E|---------------------------------------------------------------------------|


Middle
e|---------------------------------------------------------------------------|
B|---------------------------------------------------------------------------|
G|---------------------------------------------------------------------------|
D|---6--4--6--4--2---676-----------------------------------------------------|
A|---6--4--6--4--2---676-Repeat 4x-------------------------------------------|
E|---4--2--4--2--0---454-----------------------------------------------------|

e|---------------------------------------------------------------------------|
B|--Strum this part----------------------------------------------------------|
G|---4-------6------2--------------------------------------------------------|
D|---4-------6------2--------------------------------------------------------|
A|---2-------4------0--------------------------------------------------------|
E|---------------------------------------------------------------------------|

Outro
e|---------------------------------------------------------------------------|
B|---------------------------------------------------------------------------|
G|-----------------9\7-------------------------------------------------------|
D|---11/9\-11------9\7-7/9-7--9------7---------------------------------------|
A|---11/9\-11-(2x)-7\5-7/9-7--9-(4x)-7-(3x)--Repeat 8x-----------------------|
E|---9-/7\-9-----------5/7-5--7------5---------------------------------------|



************************************

| /   slide up
| \   slide down
| h   hammer-on
| p   pull-off
| ~   vibrato
| +   harmonic
| x   Mute note
| b   Bend
| pb  Pre-bend
| br  Bend release
| pbr Pre-bend release
| brb Bend release bend

************************************
Tap to rate this tab
# A B C D E F G H I J K L M N O P Q R S T U V W X Y Z