Song name
# A B C D E F G H I J K L M N O P Q R S T U V W X Y Z

Farside - I Hope Youre Unhappy tab

Help us improve GuitareTab! Take a short survey!
INTRO
    E  C  G              E  C  D  G
e|--3--3--3--3-3--3-3----3--3--3--3--3-3--3-3--|
B|--3--3--3--3-3--3-3----3--3--3--3--3-3--3-3--|
G|--0--0--0--0-0--0-0----0--0--2--0--0-0--0-0--|
D|--2--3--0--0-0--0-0----2--3--0--0--0-0--0-0--|
A|--2--2--3--3-3--3-3----2--2-----3--3-3--3-3--|
E|--0-----2--2-2--2-2----0--------2--2-2--2-2--|

VERSE
e|------------------------------3---3----X2
B|--------------------------------3---3---|
G|----0-0-2-4-2-0---0---0-0-2-0-----------|
D|--0-------------4---0-------------------|
A|----------------------------------------|
E|----------------------------------------|

INTRO is used for "I'm glad that you like your new place..." part of verse

The Chorus uses the same chords as the intro..
             E                            C
   And as we talk and reminisce, I barely mask how deeply I'm depressed.
                G                                              E      C      
   G
   And though I can't complain, I think I just might because it can't get much worse.
  C                         D
   And I hope that you're unhappy to be alone.

FILL "I don't want you to cry any more than I cry..."
e|---------------------------------------3--|
B|------0-----0-----0-----0-----0-----0--3--|
G|----0-----0-----0-----0-----0-----0----0--|
D|--2-----0-----------0-----2-----0------3--|
A|--------------3------------------------2--|
E|------------------------------------------|

"I keep myself so busy now..."
e|--3---5-3-----|
B|----3-----3---|
G|--------------|
D|--------------|
A|--------------|
E|--------------|

"I know your children..."
e|--3-----3------3--|
B|----3-----3----3--|
G|------0-----0--0--|
D|------------------|
A|------------------|
E|------------------|
Related for I Hope Youre Unhappy tab