Song name
# A B C D E F G H I J K L M N O P Q R S T U V W X Y Z

Faspitch - Hunger tab

Hunger by Faspitch.
Tabbed by: Roy Castillo

Bakyug! I'm Roy Castillo, 15 yrs. old from Dagupan City, Pangasinan.
1st time co lng mgpost ng tab. wg sna i-post s ibang sites. thanks!
I've been planning to tab this dark and awesome song from Faspitch ever since
my third yr. hs. I admire the noise created by Faspitch. asteeg tlga cla pero wla pa 2nd 
awww :(
Comments/Suggestion please txt or inform me: 09052692513 or roy.castillo25@yahoo.com -- 
ung email co. pa-add s facebook. thanks!:)


Enjoy!


Tuning: Drop C#

Intro: (eto ung msarap sa tenga n parang ghost effects pero mahirap seprahin,kinuha ko 
lng s gitara.)

Guitar 1(riff 1)
   . . . . . . . . . . . . . . . . . .
e|------------7-7-7-----------------------|
B|---------------------------------7-7-7--|     Dapat mabilis ito
G|----------------------------------------|x12 (gamitin nio ng Delay to
D|----------------------------------------|     tpos magfa2de s huli)
A|--6h7--6h7-------------6h7--6h7---------|
D|-9----9---9-----------9----9---9--------|

Guitar 2(riff 2)
(papasok to pagkatpos ng 4x na riff one)

e|-----12*-11-----------------------|
B|--------------9--12---------------|
G|---------------------------11~~~--|
D|---------------------11-14--------|
A|----------------------------------|
D|----------------------------------|

e|-----12*-11------------------------------|
B|--------------9-12s14s12-----------------|
G|-------------------------------11s13s11--|
D|--------------------------11-14----------| 2x 'tong riff 2
A|-----------------------------------------|
D|-----------------------------------------|

Both Gtr. 1 at Gtr. 2 (riff 3)
(some parts have strange strumming, listen to the song)
    . . . . . . . . . . . . . . . . . . . . . . . . . . . . . . .
G|---------------------|-------------------------|-----------------|
D|666-999-666-999--222-|-666-999-666-999--222/4--|-666-999-666-222-|
A|666-999-666-999--222-|-666-999-666-999--222/4--|-666-999-666-222-|
D|666-999-666-999--222-|-666-999-666-999--222/4--|-666-999-666-222-|
  . . . . . . . .
G|-----------------|
D|666-999-666--222-|
A|666-999-666--222-|
D|666-999-666--222-| (eto ung sa last part. ung my pause)

ulitin ulit ung riff 3.

Just you and I, I feel alright

Gtr. 2              Gtr. 1
G|------------|
D|000-4-2~~~--|     Ulitin ung riff 1
A|000-4-2~~~--| 4x
D|000-4-2~~~--|

Chorus: mejo mahirap to.

G|-----------------|------------------------------------------|
D|777-999-666--777-|-777-999-666-777---111--------------------|
A|777-999-666--777-|-777-999-666-777---111(fast strumming to)-|
D|777-999-666--777-|-777-999-666-777---111--------------------|

G|999-1111-888--999-|-999-1111-888-999---------------------------------------|
D|777-999--666--777-|-777-999--666-777---777771*1*--000-4444~~~--------------|
A|777-999--666--777-|-777-999--666-777---777771*1*--000-4444~~~--------------|
D|777-999--666--777-|-777-999--666-777---777771*1*--000-4444~~~--------------|

Gtr. 2             Gtr. 1
G|------------|
D|000-4-2~~~--|    may mga ghost notes d2. figure it out yourself.
A|000-4-2~~~--|4x
D|000-4-2~~~--|

you are the queen in the middle of the night

Gtr. 1
G|9~-11~-8~---|----------|
D|7~-9~--6~---|-2~-6~-0~-|
A|7~-9~--6~---|-2~-6~-0~-|
D|7~-9~--6~---|-2~-6~-0~-|

Gtr. 2 (timing lng tol. patience to)
e|----------------------------------------------------|
B|----------------------------------------------------|
G|-9-11-16--16-11-13-10-9-16-14-13-16-14-13-----------|
D|-x-x--x---x--x--x--x--x-x---x-x|-x--x--x--2~-6~-0~--|
A|-7-9--14--14-9--11-8--7-14-12-11-14-12-11-2~-6~-0~--|
D|------------------------------------------2~-6~-0~--|

e|-------------|
B|-------------|
G|-9-11-13--16-| (maraming strumming to hanggang mag-fade n ung song)
D|-x-x--x---x--|
A|-7-9--11--14-|
D|-------------|


   THE END!

   thanks for viewing. suportahan natin ang mga musikerong pinoy!
   Say no to Piracy, Illegal Downloading and pagburn for public use.
   Lastly, do not patronize foreign music! mahalin natin ung sariling atin.
Tap to rate this tab
# A B C D E F G H I J K L M N O P Q R S T U V W X Y Z