Song name
# A B C D E F G H I J K L M N O P Q R S T U V W X Y Z

Faspitch - All Under Heaven tab

      ah bale kailangan ng Delay.......di pa masyado kumpleto....effects  lng nmn....

        Drop D.......... first time kya mgulo..


 intro:

 Guitar 1:
 e------------------3-3---------4-4-4-4-4--------------------------------e
 B----------------------4-4----------------------------------------------B
 G--6-6----8----5------------6--------------5----------------------------G
 D--6-6----8----5------------6--------------5----------------------------D
 A--4-4----6----3------------4--------------3----------------------------A
 E-----------------------------------------------------------------------E


 e-----------------------------------------------------------------------e
 B-----------------------------------------------------------------------B
 G-----------------------------------------------------------------------G
 D--333333/555/6---66666/8/10----6666---101010/888/6666666666------------D
 A--333333/555/6---44444/6/8-----6666---8-8-8/-666/4444444444------------A
 E--333333/555/6-----------------6666------------------------------------E


 e-----------------------------------------------------------------------e
 B-----------------------------------------------------------------------B
 G-----------------666/8/10-----------101010/888/101010/121212-----------G
 D--333333/555/6---------------6666--------------------------------------D
 A--333333/555/6---444/6/8-----6666---8-8-8/-666/8-8-8-/101010-----------A
 E--333333/555/6---------------6666--------------------------------------E

 e--------------------3--------------------------------------------------e
 B----------4------------4-----------------------------------------------B
 G--6----5---------------------------------------------------------------G
 D--6---------7---33-----------------------------------------------------D
 A--4-------------33-----------------------------------------------------A
 E----------------33-----------------------------------------------------E


 Guitar 2: intro
 
 e-----------------------------------------------------------------------e
 B-----------------------------------------------------------------------B
 G-----------------------------------------------------------------------G
 D--333333/555/6---666/8/10---6666666/888/666----666666------------------D
 A--333333/555/6---444/6/8----6666666/888/666----444444------------------A
 E--333333/555/6--------------6666666/888/666----------------------------E
                                  2x to...

   
  verse: Guitar 1
 
 e-----444444------33333-----44444-----3333------------------------------e
 B------------------------------------------44---------------------------B
 G--6----------5----------6---------5------------------------------------G
 D--6----------5----------6---------5------------------------------------D
 A--4----------3----------4---------3------------------------------------A
 E-----------------------------------------------------------------------E

 "maybe ill just dream of you tonight"

 e-----44444/6-----3333/4-----44444-----3333--------------6666-----88/99-e
 B----------------------------------------------44444--------------------B
 G--6-----------5----------6---------5-------6---------5-------6---------G
 D--6-----------5----------6---------5-------6---------5-------6---------D
 A--4-----------3----------4---------3-------4---------3-------4---------A
 E-----------------------------------------------------------------------E


 e-----44-666666/88888---3--------------------33----------4444----33333--e
 B-------------------------4---------------------44----------------------B
 G--5------------------------5/6-5/6---6-8-5------------6------5---------G
 D--5----------------------------------6-8-5------------6------5---------D
 A--3----------------------------------4-6-3------------4------3---------A
 E-----------------------------------------------------------------------E

 e-----88-99-----44-66-----4444444---------------------------------------e
 B-----------------------------------------------------------------------B
 G--6---------5---------6-----------5------------------------------------G
 D--6---------5---------6-----------5------------------------------------D
 A--4---------3---------4-----------3------------------------------------A
 E-----------------------------------------------------------------------E

 

 Shouting part before chorus:
 Both guitars:

 e-----------------------------------------------------------------------e
 B-----------------------------------------------------------------------B
 G---------------6-------------------------------------------------------G
 D---0--2--3--0--6-------------------------------------------------------D
 A---0--2--3--0--4-------------------------------------------------------A
 E---0--2--3--0----------------------------------------------------------E
                     pakinggan nyo n lng kung ilang beses

 Chorus: Both guitar1 and guitar 2
 e-----------------------------------------------------------------------e
 B-----------------------------------------------------------------------B
 G-----------------------------------------------------------------------G
 D--333333/555/6---666666666--666666666-----66666666666666---------------D
 A--333333/555/6---444444444--666666666-----44444444444444---------------A
 E--333333/555/6--------------666666666----------------------------------E

 guitar 1 only
 e-----888-------------888-----------------------------------------------e
 B-----------666------------666--------999--666-----999--666-------------B
 G-----------------888-----------888-------------88----------88----------G
 D-----------------------------------------------------------------------D
 A-----------------------------------------------------------------------A
 E-----------------------------------------------------------------------E
                    tapoz may nilalaro p dun...kau n bhala

 before chorus ung puro fret:
 Both guitar
  
 e-----------------------------------------------------------------------e
 B-----------------------------------------------------------------------B
 G-----------------------------------------------------------------------G
 D--0--3--2---0--2--3----------------------------------------------------D
 A--0--3--2---0--2--3----------------------------------------------------A
 E--0--3--2---0--2--3----------------------------------------------------E
                    pakinggan nyo n lng kung ilang beses.


       Dito n lng muna........dadagdagan ko n lng ulit pag akoy cnipag
Tap to rate this tab
# A B C D E F G H I J K L M N O P Q R S T U V W X Y Z