Song name
# A B C D E F G H I J K L M N O P Q R S T U V W X Y Z

Fast Crew - Suburbia Streets tab

-------------------------------------------------------------------------------
			     Suburbia Streets - Fast Crew
-------------------------------------------------------------------------------
Tabbed by: Nathan Gilling

Tuning: Normal

   Em               D                C                D
e|-7--7-7--7-7----7-5--5-5--5-5----5-3--3-3--3-3----3-5--5-5--5-5-------|
B|-8--8-8--8-8----8-7--7-7--7-7----7-5--5-5--5-5----5-7--7-7--7-7-------|
G|-9--9-9--9-9----9-7--7-7--7-7----7-5--5-5--5-5----5-7--7-7--7-7-------|
D|-9--9-9--9-9----9-7--7-7--7-7----7-5--5-5--5-5----5-7--7-7--7-7-------|
A|----------------------------------------------------------------------|
E|----------------------------------------------------------------------|
Tap to rate this tab
 
# A B C D E F G H I J K L M N O P Q R S T U V W X Y Z