Song name
# A B C D E F G H I J K L M N O P Q R S T U V W X Y Z

Fastball - Modern World tab

Great new song from Fastball. It was on their Myspace page a while ago. I didn't see a
for it, so I decided to do it myself. This is my first tab. Don't be a jerk if you
unless you can do better. There are  a few parts I couldn't figure out so I just put 
sounded best to me.

Capo 2
All relative to capo

Intro/Verse:
E|-----------------------------------------------------------|
B|----1-1-1-1-1-1-1-1-1-1-1-1-1-1-1-1-2-2-2-2----------------|
G|-----------------------------------------------------------|
D|---3-3-3-3-3-3-3-3-3-3-3-3-3-3-3-3-3-3-3-3-----------------|
A|-----------------------------------------------------------|
E|-----------------------------------------------------------|

E|-----------------------------------------------------------|
B|----1-1-1-1-2-2-2-2-1-1-1-1-2-2-2-2-1-1-1-1----------------|
G|-----------------------------------------------------------|
D|---2-2-2-2-3-3-3-3-3-3-3-3-3-3-3-3-3-3-3-3-----------------|
A|-----------------------------------------------------------|
E|-----------------------------------------------------------| Reapeat for verse


Chorus:

Fm                         Bbm
I'm tired of living in the modern world

C
With Pretty boys

Fm
And plastic girls

Bbm
Broken hearts

Fm
Vanity's the disease

Chords:

Fm: 122111
Bbm: 113321
C: x32010
Tap to rate this tab
 
# A B C D E F G H I J K L M N O P Q R S T U V W X Y Z