Song name
# A B C D E F G H I J K L M N O P Q R S T U V W X Y Z

Faster Faster - Forever tab

I figured this out by ear.  Sounds pretty much right to me.
I've got basically the whole thing except the solo I'm still
trying to work out.
Tuning is standard.
Play acoustic or clean electric.
Any questions, comments, cries of outrage, email me at:
Zack.J.Michael@gmail.com
www.myspace.com/gofasterfaster

Verse:
"You're moving on..."
e----2-----0-----3-----2--------------------------|
B------3-----2-----0-----2------------------------|
G--------2-----2-----0-----2----------------------|
D-------------------------------------------------|
A-------------------------------------------------|
E-------------------------------------------------|

Repeat this the whole first verse until:

"Longer than this..."
e----2-----0------3-------------------------------|
B------3-----2----3-------------------------------|
G--------2-----2--0-------------------------------|
D-----------------0-------------------------------|
A-----------------2-------------------------------|
E-----------------3-------------------------------|


[Chorus]
       D         A         G           A
I hope every sad song that you’ll ever sing
     D          A              G        A
Will constantly bring your mind back to me (back to me)
D            A            G          A
Come back to me when this started in spring
  D         A           G
I never saw this ending so
A        D
   Suddenly

[Interlude/Solo]
For this part I usually just play D,A,G,A a couple times
Since I don't have the solo part figured out yet.

[Chorus]
       D         A         G           A
I hope every sad song that you’ll ever sing
     D          A              G        A
Will constantly bring your mind back to me (back to me)
D            A            G          A
Come back to me when this started in spring
  D         A           G*
I never saw this ending so
       D*
Suddenly

* - At these parts it is just a single downward strum

Well, I hope you enjoy!
Tap to rate this tab
# A B C D E F G H I J K L M N O P Q R S T U V W X Y Z