Song name
# A B C D E F G H I J K L M N O P Q R S T U V W X Y Z

Fastlane - Virus tab

Artist: Fastlane
Song: Virus
Tuning: Drop D (DADGBe)
Tabbed by: Dan Fallows (Sick of you)

This was previously posted in unsigned bands, but i saw they finally have a band listing 
here so hopefully they will put it in there instead this time.

Website: http://www.fastlanerock.com/
Myspace: http://www.myspace.com/fastlane

I'm pretty sure this is right so far, enjoy!

Intro

e|-------------|---------------|
B|-------------|---------------|
G|--11--9--77--|--11--13--1414-|
D|--x---x--xx--|--x---x---x-x--|
A|--9---7--55--|--9---11--1212-|
D|-------------|---------------|

Verse

e|--------------------------------------|
B|--------------------------------------|
G|--------------------------------------|
D|--4444-4~-----------0000-0~-----------| Repeat x2
A|--4444-4~-let ring--0000-0~-let ring--|
D|--4444-4~-----------0000-0~-----------|
                  

e|---------------------------|
B|---------------------------|
G|---------------------------|
D|--4--2--1--2--0~-----------|
A|--------------0~-let ring--|
D|--------------0~-----------|

Note: there are two ways to play this next part (see end of Tab)**
Repeat x2
e|--------------------------------------|----------------------|
B|--------------------------------------|----------------------|
G|-------------7--6--7------------------|-------------7--6--7--|
D|--22-44-2-4--7--6--7--22-44-2-4--7\6--|--22-44-2-4--7--6--7--|
A|--22-44-2-4--5--4--5--22-44-2-4--7\6--|--22-44-2-4--7--4--5--|
D|--22-44-2-4-----------22-44-2-4--7\6--|--22-44-2-4-----------|

e|-------------------------------|
B|-------------------------------|
G|-------------4(Pinch Harmonic)-|
D|--0~--4h2h0--------------------|
A|--0~-------4-------------------|
D|--0~---------------------------|


Thats all i managed to figure out so far, i will post the rest when i've figured it out!

Alternate Part**
Repeat x2
e|----------------------------------|--------------------|-----------------|
B|----------------------------------|--------------------|-----------------|
G|-----------7--6--7----------------|-----------7--6--7--|------------4----|
D|--22-4444--7--6--7--22-4444--7\6--|--22-4444--7--6--7--|--2--4h2h0-------|
A|--22-4444--5--4--5--22-4444--7\6--|--22-4444--5--4--5--|--2-------4------|
E|--00-2222-----------00-2222--5\4--|--00-2222-----------|--0--------------|

Any comments on where i made mistakes are appreciated.
Tap to rate this tab
 
# A B C D E F G H I J K L M N O P Q R S T U V W X Y Z