Song name
# A B C D E F G H I J K L M N O P Q R S T U V W X Y Z

Fastway - Trick Or Treat tab

------------------------------|
------------------------------|
------------------------------|
----9-------------------------|
----7-----10-10---7-----------|
----------8--8----5-----------|

------------------------------|
------------------------------|
------------------------------|
----9-------------7-----------|
----7-----10-10---5-----------|
----------8--8----------------|

this is my first tab and it was by ear. Just this alone took me a week so you might have 
wait a few weeks for the next part!!
Tap to rate this tab
# A B C D E F G H I J K L M N O P Q R S T U V W X Y Z