Song name
# A B C D E F G H I J K L M N O P Q R S T U V W X Y Z

Fat Austen - Brutus tab

this song kicks ass and is really easy to play


  Intro
e-------------------------------|
b-------------------------------|
g-13-11-13----------------------|
D----------9-9-9-7--------------|
A-11-9--11-9-9-9-7--------------|
E----------7-7-7-5--------------|

Verse

g-9-----------------|
D-9-9-11-7----------|
A-7-9-11-7----------|
E---7-9--5----------|


Chorus "Just let me be.."

g-9-------9---------------|
D-9-9-7-9-9---------------|
A-7-9-7-9-7---------------|
E---7-5-7-----------------|


the part after the bass interlude is just a high E octove chord

Any questions or request e~mail me at blink182fghpfb@yahoo.com
Tap to rate this tab
# A B C D E F G H I J K L M N O P Q R S T U V W X Y Z