Song name
# A B C D E F G H I J K L M N O P Q R S T U V W X Y Z

Fat Freddys Drop - Ground My Ego tab

Help us improve GuitareTab! Take a short survey!
Song:		Ground My Ego
Artist:		Fat Freddy's Drop
Album:		Loop Select 003
Tabbed by James van Rooyen
Enjoy

Riff 1:

  Em                             Bm
E---------------------------------------------------------------------|
B---------------------------------------------------------------------|
G----------------4----2----4---------------------4----2----2----------|
D---5-2----------4----2----4-------------5-2-----4----2----2----------|
A--------------2----0----2---------------------2----0----4------------|
E-0------------------------------------0------------------------------|
    Ground...     It's better...
    Show me...    Then let...


Riff 2:
E--------------------------------------------------------------------------0------|
B---------------1-------0------0-----------0-----------------1-------0-----0------|
G---4-------------2------------------------0-------2-----------2-----------0------|
D---2---------4-----4----------2-------------------2--------4----4---------2------|
A--3--------3---------3--------------------------3--------3--------3-------2------|
E--------------------------0-------0-2-3-----------------------------------0------|


Riff 3:
E-----0-------------------------0--------------------------------------------|
B-----0-------------------------0--------------------------------------------|
G-----0--0----0-----0-----0-----0--------------------------------------------|
D-----2-------------------------2--------------------------------------------|
A-----2---5------4-----0--------2--------------------------------------------|
E--0--0----------------------0--0--------------------------------------------|

[Riff 1] with background Em & Bm
Intro

[Riff 1] without background chords:
Ground my ego
It's better to know my place
Where to we go
I'll follow if you set pace
Show me some surrender please
Then let your judgement fall
Ground my Ego

[Riff 2]
Gracious One teach me humility
There's no mystics, just lessons to be learned
I should have listened long ago

[Riff 3]
Ground my ego...
Related for Ground My Ego tab