Song name
# A B C D E F G H I J K L M N O P Q R S T U V W X Y Z

Fat Freddys Drop - Wandering Eye tab

Fat Freddy's Drop
Wandering Eye
by Greyfuchs
mike.guelpa@gmail.com
Feb 2011

Not Perfect at all but there doesn't seem to be much out there for this song.



Chords:
Bm7 - E - D

Can be played like below to simulate the bass guitar
Quickly move from the E to the D
E|---7---------9---7-------|
B|---7---------9---7-------|
G|---7---------9---7-------|
D|-------------------------|
A|-----------7----5--------|
E|-----77------------------|


Fill 1:24
E|---------------------|
B|---------------------|
G|9s11-9-7----------7--|
D|---------9--7--9-----|
A|---------------------|
E|---------------------|

Solo / Fill @ 6:12
E|-------------------------------------------------------------------------|
B|-------------------------------------------------------------------------|
G|77-----77---------------------------7---------------------7--------------|
D|----9------9--7--5--77--5--77----9---------77--5--77--5-----9--7--5------|
A|-------------------------------------------------------------------------|
E|-------------------------------------------------------------------------|
Tap to rate this tab
 
# A B C D E F G H I J K L M N O P Q R S T U V W X Y Z