Song name
# A B C D E F G H I J K L M N O P Q R S T U V W X Y Z

Fat Freddys Drop - Clean The House chords

Highlighted       Show chord diagrams
Fat Freddy's Drop - Clean the House

Tabbed by Tobb

Chords:

    C   Bm   A   F   Dm  
e|--3---2----5---1---5----|
B|--5---3----5---1---6----|
G|--5---4----6---2---7----|
D|--5---4----7---3---7----|
A|--3---2----7---3---5----|
E|--x---x----5---1---x----|

Strumming pattern:

Downstrokes on 1-2-3-4, with accent on 3.

Intro (approximatly):

    C   Bm   A
e|----------------5---------------------|  
B|----5---3--5----5---------------------|  
G|----5---4--6----6------6h7p6-6----6---|x3
D|----5---4--7----7------5-----7----7---|  
A|--3---2----x----7------7-----7----7---|
E|-----------5----5----5-------5--5---5-|

   C    Bm   F 
e|-----------1~--|
B|----5---3--1~--|
G|----5---4--2~--|
D|----5---4--3~--|
A|--3---2----3~--|
E|-----------1~--|


F               Am
  Man I opened my eyes now i'm sorry yea yea
                 F                 Dm
Oh the vision i had could not compare
             Am         
So maybe i stay for a while I don't know
                     F                    Dm
The dream she keeps calling so i got to go 

                  Am
Could tap on my window, knock on my door, 
               F                 
The lights are on but nobody's home. 
                Am
Pickin' up the pieces, where do we start, 
                  F                        
Can't seem to do much with this broken heart
                   Am
Cleanin' the house man

                                F    Dm
Well thats all i'm tryin to do, 
                    Am
Get up from the bottom, 
                                F       Dm
It's taken some time to get through
                         Am   C   Dm  
How am i gonna leave you
                         Am   C   Dm   
How am i gonna leave you 

F                 Am 
  Man I opened my eyes now i'm sorry yea yea
                 F                  Dm
Oh the vision i had could not compare
             Am              
So maybe i stay for a while I don't know
                     F                    Dm
The dream she keeps calling so i got to go 
             
             Am
It all gets cold, reality hits,
                    F
I think i'm gonna stay on these shores for a bit,
                    Am
To catch the last rays, walk in the sun, 
                          F
So i don't feel like its over, 
              Dm   Am
before before
Tap to rate this tab
# A B C D E F G H I J K L M N O P Q R S T U V W X Y Z