Song name
# A B C D E F G H I J K L M N O P Q R S T U V W X Y Z

Fat Joe - Make It Rain tab

Help us improve GuitareTab! Take a short survey!
Highlighted       Show chord diagrams
MAKE IT RAIN
FAT JOE/LIL WAYNE

KEY: E MINOR

INTRO/RIFF:
e|-------------------|
B|-------------------|
G|-------------------|
D|-------------------|
A|---------2-0---3-2-|
E|-0-2-3-5-----3-----|

e|-------------------|
B|-------------------|
G|-------------------|
D|-------------------|
A|---------2-0---0-2-|
E|-0-2-3-5-----3-----|

CHORUS:
Em                G
Yeah, I'm in this business of terror,
      D                         Em
Gotta handful of stacks, better grab an umbrella
          Em
I make it rain (I make it rain)
          G
I make it rain on them hoes
          D
I make it rain (I make it rain)
          Em
I make it rain on them hoes
          Em
I make it rain (I make it rain)
          G
I make it rain on them hoes
          D
I make it rain (I make it rain)
          Em
I make it rain on them hoes

VERSE:
Em     G     D     Em     

CHORUS

[RIFF:]
e|-------------------|
B|-------------------|
G|-------------------|
D|-------------------|
A|---------2-0---3-2-|
E|-0-2-3-5-----3-----|

e|-------------------|
B|-------------------|
G|-------------------|
D|-------------------|
A|---------2-0---0-2-|
E|-0-2-3-5-----3-----|

VERSE

CHORUS

VERSE

CHORUS 
Related for Make It Rain tab