Guitaretab - guitar tabs
Song name
# A B C D E F G H I J K L M N O P Q R S T U V W X Y Z
Home / F / Fat / Downtime tab

Fat - Downtime tab

song:   Downtime
Artist: Fat
Album:  Fat ('1997)
Tabber: Kenny Burgess
Email: Fat105@aol.com

A lot of times I see mistakes on the lyrics
for this song.

Example: Keeps me warm at night when sleep "projects" me
         Keeps me warm at night when sleep "attracts" me
         
those two are WRONG!!!
the real way is this

          Keeps me warm at night when sleep "REJECTS" me

intro
-----
e|------------
b|------------
g|------------
d|--2--2-2-2--
a|--2--2-2-2--
e|--0--0-0-0--


Verse
-----
e|---------------------------------
b|---------------------------------
g|----------------------------6-7--
d|-------------------------xx-6-7--
a|----7---5---7\0---7---5--xx-4-5--
e|--0---0---0-----0---0------------

[ Tab from: http://www.guitaretab.com/f/fat/35275.html ]
end verse in this
e|-------------
b|-------------
g|-------------
d|--5-5-4-4-2--
a|--5-5-4-4-2--
e|--3-3-2-2-0

leave out the 
022XXX before 
the chorus


chorus

e|---------
b|---------
g|-4----4--
d|-4----4--
a|---xx----
e|---xx----
p.m  --   repeat
"out! i should of kept you out!"

I dont know the rest of the chorus yet
but i anyone does it would mean a lot 
to me if you would mail it to me or put
it up in the corrections.

riff 4
e|--------------
b|--------------
g|-----------5--
d|-2-2-2-2-2-5--
a|-2-2-2-2-2-3--
e|-0-0-0-0-0----
p.m---------

e|----------------
b|----------------
g|-----------6-7--
d|-2-2-2-2-2-6-7--
a|-2-2-2-2-2-4-5--
e|-0-0-0-0-0------
p.m---------


www.stereolife.com    (ad and gareths new project)
Related for Downtime tab