Song name
# A B C D E F G H I J K L M N O P Q R S T U V W X Y Z

Fat - New Birth tab

Help us improve GuitareTab! Take a short survey!
Song:   New Birth
Artist: Fat
Album: Fat ('1997)
tabber: Kenny Burgess
email:  Fat105@aol.com

All the FAT songs here were tabbed my me.

intro
e|------------------
b|------------------
g|------------------
d|--4-4-4--4-4-4-4--
a|--4-4-4b-4-4-4-4--
e|--2-2-2--2-2-2-2--


e|--------------------
b|-------------------- 
g|----4---------------
d|--------------------
a|--2-----------------
e|--------------------
 
   I dont know what your supposed
   to do with the 4. bend it or slide.

pre-chorus: strums not included
e|---------------------
b|--------------------- 
g|---------------------
d|--4---4---5---5---6--
a|--4---2---3---5---6--
e|--2---2---3---3---4--
Related for New Birth tab