Song name
# A B C D E F G H I J K L M N O P Q R S T U V W X Y Z

Fatal Bazooka - Chienne De Vie tab

----------------------------------------------------------------------------
			     Chienne de Vie - Fatal Bazooka
----------------------------------------------------------------------------
Tabbed by: Martin Messner
Email: BigBonsai@hotmail.de

Tuning:E-Standart

Piano-Intro:
e|-------------------------------------------------------------------------------------|
B|-------------------------------------------------6--------6-----------5--------5-----|
G|-------------------------------------------------------------------------------------|
D|-------7--------7-----------5--------5--------7--------7------7----5--------5------5-|
A|-5--8-----5--8----5-8----7--------7------7-8--------8-------8---7--------7-------7---|
E|----------------------8--------8-------8---------------------------------------------|


Strings:
e|--------------------------------|
B|-------------------10-----11----|
G|--10-----12--9----------------9-|
D|--------------------------------|
A|--------------------------------|
E|--------------------------------|



Chorus ("Chienne de vi- eeee-eeee" ^^)
e|---------------------------------------------|
B|----------------10---------------------------|
G|--10-----12--9------12--15--14--12h14h15---12|
D|---------------------------------------------|
A|---------------------------------------------|
E|---------------------------------------------|
  >>Oh     oh  oh  |  de   | 
               Chienne    vie-ee-ee/ee/ee----ee<<    ^^

(omg, j'aime cette chanson XD)

http://fatalbazooka.com/
(an official artist)
Tap to rate this tab
# A B C D E F G H I J K L M N O P Q R S T U V W X Y Z