Song name
# A B C D E F G H I J K L M N O P Q R S T U V W X Y Z

Fatal Bazooka - Trankillement tab

----------------------------------------------------------------------------
			     Trankillement - Fatal Bazooka
----------------------------------------------------------------------------
Tabbed by: Martin Messner
Email: BigBonsai@hotmail.de

Tuning: E-Standart

Background-Tune
e|--14--12----12------14--12----12-----|
B|----------15--12------------15--12---|
G|-------------------------------------|
D|-------------------------------------|
A|-------------------------------------|
E|-------------------------------------|


Guitar
e|--14---14---14--14--12---12---12--12--10---10---10--10--9---9---9--9-----|
B|-------------------------------------------------------------------------|
G|-------------------------------------------------------------------------|
D|-------------------------------------------------------------------------|
A|-------------------------------------------------------------------------|
E|-------------------------------------------------------------------------|


e|--10---10---10--10--12---12---12--12--10---10---10--10--9---9---9--9-----|
B|-------------------------------------------------------------------------|
G|-------------------------------------------------------------------------|
D|-------------------------------------------------------------------------|
A|-------------------------------------------------------------------------|
E|-------------------------------------------------------------------------|

Bass
G|--11--9-------------------------11--9----9-------------------------------|
D|---------12-11-12-9--10---------------12---11-12-11----------------------|
A|-------------------------12-------------------------12-------------------|
E|-------------------------------------------------------------------------|

(The Bass is surprisingly variable... as long as you start with the F# first and the A 
feel free to play the 3 notes between randomly but with the groove 8D   )


http://www.fatalbazooka.com/
(an offical artist)
Tap to rate this tab
# A B C D E F G H I J K L M N O P Q R S T U V W X Y Z