Song name
# A B C D E F G H I J K L M N O P Q R S T U V W X Y Z

Fatboy Slim - Going Out Of My Head tab

-------------------------------------------------------------------------------
			     GOING OUT OF MY HEAD - Fatboy Slim
-------------------------------------------------------------------------------
Tabbed by: Sk

This is not an accurate tab, but it sounds really good.
Tuning: Standard

e|--------------------------------------------------------------------------|
B|---------12--1010---5-7777------------------------------------------------|
G|---------13--1111---6-8888------------------------------------------------|
D|---------14--1212---7-9999------------------------------------------------|
A|--------------------------------------------------------------------------|
E|--------------------------------------------------------------------------|

Variation on Intro
e|--------------------------------------------------------------------------|
B|---------12--1010---55-55-------------------------------------------------|
G|---------13--1111---66-66--99---------------------------------------------|
D|---------14--1212---77-77--99---------------------------------------------|
A|---------------------------77---------------------------------------------|
E|--------------------------------------------------------------------------|


You can slide up to the 12 After playing 7777 or 99
                        13               8888    99
| /  slide up           14               9999    77
| \  slide down
| h  hammer-on
| p  pull-off
| ~  vibrato
| +  harmonic
| x  Mute note
===============================================================================
Tap to rate this tab
 
# A B C D E F G H I J K L M N O P Q R S T U V W X Y Z