Song name
# A B C D E F G H I J K L M N O P Q R S T U V W X Y Z

Fatboy Slim - Right Here Right Now tab

I read the other tabs and it seems to me that they are the right tune but no where near 
right pitch. I just happened to be listening to a trailer with the intro to "Right Here 
Now" in it and came up with:


Artist: Fatboy Slim
Song: Right Here Right Now
Tabbed by: La Qotsa (Alex)
Email: alex_mihail@hotmail.co.uk

Tuning: Standard (EADGBe)

Main Theme:
e|-18--20--21--20--23--21--20--18---16--18--20--18--21--20--18--16---------|
B|-------------------------------------------------------------------------|
G|-------------------------------------------------------------------------|
D|-------------------------------------------------------------------------|
A|-------------------------------------------------------------------------|
E|-------------------------------------------------------------------------|

Chords in background:
e|-------------------------------------------------------------------------|
B|-------------------------------------------------------------------------|
G|-------------------------------------------------------------------------|
D|--8--10--6--5------------------------------------------------------------|
A|--8--10--6--5------------------------------------------------------------|
E|--6--8---4--3------------------------------------------------------------|

The bit after this is too high to get on the guitar but is based around the first riff, 
could use pinch harmonics at 3rd string 5th, 8th, 7th, 5th, 4th and 5th frets (in that 
it's up to you to get the right pitches on them.

| /  slide up
|   slide down
| h  hammer-on
| p  pull-off
| ~  vibrato
| +  harmonic
| x  Mute note
Tap to rate this tab
# A B C D E F G H I J K L M N O P Q R S T U V W X Y Z