Song name
# A B C D E F G H I J K L M N O P Q R S T U V W X Y Z

Fatboy Slim - Illuminati tab

Artist: Fatboy Slim
Album: 
"Michael Jackson" - Better Living Through Chemistry
"Illuminati" - Tomb Raider Soundtrack

I've put it as 'intermediate' because of the difficulty of the distance between 
frets, especially when you're interested in playing it in the same BPM as the 
actual song or playing along with it.

Intro Riff:
e|---------------------------------------------------------| This plays over and over again...
B|---------------------------------------------------------|
G|---------------------------------------------------------|
D|---------------------------------------------------------|
A|-----11-13---------------11h13---------------------------|
E|--6--------------6-6-6-6---------------------------------| ...until...

Breakdown:
e|---------------------------------------------------------| ...this plays twice. Then back to
B|---------------------------------------------------------| Intro Riff.
G|---------------------------------------------------------|
D|---------------------------------------------------------|
A|------8-8-5-6--------8-8-5-6--xx-6-----------------------|
E|--1--------------1------------xx-5-----------------------|
Tap to rate this tab
# A B C D E F G H I J K L M N O P Q R S T U V W X Y Z