Song name
# A B C D E F G H I J K L M N O P Q R S T U V W X Y Z

Fatboy Slim - Push The Tempo tab

Hi all...

I requested this song, but i only got a shitty version of it.
So i tabbed it myself. Its my first song fokes, so don't be easy on me.

Its just the main riff though.

Powerchords: A5, C5 and G5

E-----------------------------|
B-----------------------------|
G--------------5-5------------|
D---7-7-7-7----5-5----5-------|
A---7-7-7-7----3-3----5-------|
E---5-5-5-5-----------3-------|


You can also play this way if it is easier


E-----------------------------|
B-----------------------------|
G--------------10-10----------|
D---7-7-7-7----10-10----5-----|
A---7-7-7-7-----8--8----5-----|
E---5-5-5-5-------------3-----|

Tha SIK
//out
Tap to rate this tab
# A B C D E F G H I J K L M N O P Q R S T U V W X Y Z