Song name
# A B C D E F G H I J K L M N O P Q R S T U V W X Y Z

Fate - Taught To Kill tab

-------------------------------------------------------------------------------
                             Taught To Kill - Fate
-------------------------------------------------------------------------------
Tabbed by:GuitarAbei
E-mail:guitarabei@gmail.com

I have to say I was a Metal guy
! This is Fate New Record
I hope you enjoy it  

Tuning:E A D G B E

Riff 1
e|---------------------------------------------------------------------------|
B|---------------------------------------------------------------------------|
G|---------------------------------------------------------------------------|
D|---7-----8-5-7-----8-7-5---7-----5-3-2--3--5--6----------------------------|
A|---0-0-0-0-0-0-0-0-0-0-0---0-0-0-0-0-0--3--5--6----------------------------|
E|----------------------------------------1--3--4----------------------------|

Riff 2
e|---------------------------------------------------------------------------|
B|---------------------------------------------------------------------------|
G|---5--7--7-7-7-7-6---------------------------------------------------------|
D|-------------------7-------------------------------------------------------|
A|---------------------------------------------------------------------------|
E|---------------------------------------------------------------------------|
Riff 3                              Riff4
e|---------------------------------------------------------------------------|
B|---------------------------------------------------------------------------|
G|---------------------------------------------------------------------------|
D|---2---------------------------3-------------------------------------------|
A|---0-0-0-0-0-0-0-0-0-0-0-0-0-0-1--------------2---------------3------------|
E|----------------------------------------------0---------------1------------|

Riff 5
e|---------------------------------------------------------------------------|
B|---------------------------------------------------------------------------|
G|---------------------------------------------------------------------------|
D|-----5-----5-----5---------------------------------------------------------|
A|-----3-3-3-3-3-3-3-3--5-----5-----5----3-----3-----3----2------------------|
E|----------------------3-3-3-3-3-3-3-3--1-1-1-1-1-1-1-1--0------------------|
Riff 6
e|---------------------------------------------------------------------------|
B|---------------------------------------------------------------------------|
G|---------------------------------------------------------------------------|
D|---------------------------------------------------------------------------|
A|------------3---3-5-3------------------------------------------------------|
E|----0-0---0-1-0-1-3-1-0----------------------------------------------------|



************************************

| /   slide up
| \   slide down
| h   hammer-on
| p   pull-off
| ~   vibrato
| +   harmonic
| x   Mute note
| b   Bend
| pb  Pre-bend
| br  Bend release
| pbr Pre-bend release
| brb Bend release bend

************************************
Tap to rate this tab
# A B C D E F G H I J K L M N O P Q R S T U V W X Y Z