Song name
# A B C D E F G H I J K L M N O P Q R S T U V W X Y Z

Fatso Jetson - Kettles Of Doom tab

Kettles of Doom By Fatso Jetson.
This song is from the album "Stinky Little Gods".
I've tabbed this the way I play it.
Listen to the song to understand the rhythm and timing of the notes used.
This is played in standard tuning.

http://www.fatsojetson.com/fr_home.cfm


e|------------------------------------------------------|
B|----------------12----12v\-------------12----12v\-----|
G|-5b---5b----/13----13--------5b----/13----13----------|
D|-5b---5b---------------------5b-----------------------|
A|-3b---3b---------------------3b-----------------------|
E|------------------------------------------------------|

e|------------------------------------------------------|
B|-----------12----12v\-------------12----12v\----------|
G|-5b----/13----13--------5b----/13----13---------------| 
D|-5b---------------------5b----------------------------|
A|-3b---------------------3b----------------------------|
E|------------------------------------------------------|

e|------------------------------------------------------|
B|------------------------------------------------------|
G|------------------------------------------------------|
D|-5p3------------------5p3-----------------------------| 
A|---------4v---2p0-------------4v---2p0----------------|
E|-----5-3----0-----3p0-----5-3----0-----3p0------------|

e|------------------------------------------------------|
B|------------------------------------------------------|
G|------------------------------------------------------|
D|-5p3------------------5p3-----------------------------| 
A|---------4v---2p0-------------4v---2p0----------------|
E|-----5-3----0-----3p0-----5-3----0-----3p0------------|

e|------------------------------------------------------|
B|------------------------------------------------------|
G|------------------------------------------------------|
D|-5p3------------------5p3-----------------------------| 
A|---------4v---2p0-------------4v---2p0----------------|
E|-----5-3----0-----3p0-----5-3----0-----3p0------------|

e|------------------------------------------------------|
B|------------------------------------------------------|
G|------------------------------------------------------|
D|-5p3------------------5p3-----------------------------| 
A|---------4v---2p0-------------4v---2p0----------------|
E|-----5-3----0-----3p0-----5-3----0-----3p0------------|

e|------------------------------------------------------|
B|-------7-5v----------------7-5v-----------------------|
G|-------7-5v----------------7-5v-----------------------|
D|------------------------------------------------------| 
A|------------2p0-----------------2p0-------------------|
E|-3-4-5----------3p0--3-4-5----------3p0---------------|

e|------------------------------------------------------|
B|-------7-5v----------------7-5v-----------------------|
G|-------7-5v----------------7-5v-----------------------|
D|------------------------------------------------------| 
A|------------2p0-----------------2p0-------------------|
E|-3-4-5----------3p0--3-4-5----------3p0---------------|

e|--------------------------------3-3-------------------|
B|--------------------------------2-2-------------------|
G|------------------------------------------------------|
D|-5p3------------------5p3-----------------------------| 
A|---------4v---2p0-------------4-----------------------|
E|-----5-3----0-----3p0-----5-3-------------------------|

e|--------------------------------3-3-------------------|
B|--------------------------------2-2-------------------|
G|------------------------------------------------------|
D|-5p3------------------5p3-----------------------------| 
A|---------4v---2p0-------------4-----------------------|
E|-----5-3----0-----3p0-----5-3-------------------------|

e|--------------------------------3-3-------------------|
B|--------------------------------2-2-------------------|
G|------------------------------------------------------|
D|-5p3------------------5p3-----------------------------| 
A|---------4v---2p0-------------4-----------------------|
E|-----5-3----0-----3p0-----5-3-------------------------|

e|------------------------------------------------------|
B|------------------------------------------------------|
G|------------------------------------------------------|
D|-5p3------------------5p3-----------------------------| 
A|---------4v---2p0-------------4v---2p0----------------|
E|-----5-3----0-----3p0-----5-3----0-----3p0------------|

e|------------------------------------------------------|
B|-------7-5v----------------7-5v-----------------------|
G|-------7-5v----------------7-5v-----------------------|
D|------------------------------------------------------| 
A|------------2p0-----------------2p0-------------------|
E|-3-4-5----------3p0--3-4-5----------3p0---------------|

e|------------------------------------------------------|
B|-------7-5v----------------7-5v-----------------------|
G|-------7-5v----------------7-5v-----------------------|
D|------------------------------------------------------| 
A|------------2p0-----------------2p0-------------------|
E|-3-4-5----------3p0--3-4-5----------3p0---------------|

e|------------------------------------------------------|
B|------------------------------------------------------|
G|------------------------------------------------------|
D|-2--2------0-----2--2------0--------------------------|
A|-2--2--0h2-------2--2--0h2-----4----------------------|
E|-0--0--------3b--0--0--------3------------------------|

e|------------------------------------------------------|
B|------------------------------------------------------|
G|------------------------------------------------------|
D|-2--2------0-----2--2------0--------------------------|
A|-2--2--0h2-------2--2--0h2-----4----------------------|
E|-0--0--------3b--0--0--------3------------------------|

e|------------------------------------------------------|
B|------------------------------------------------------|
G|------------------------------------------------------|
D|-2--2------0-----2--2------0--------------------------|
A|-2--2--0h2-------2--2--0h2-----4----------------------|
E|-0--0--------3b--0--0--------3------------------------|

e|------------------------------------------------------|
B|------------------------------------------------------|
G|------------------------------------------------------|
D|-2--2------0-----2--2------0--------------------------|
A|-2--2--0h2-------2--2--0h2-----4----------------------|
E|-0--0--------3b--0--0--------3------------------------|

e|------------------------------------------------------|
B|------------------------------------------------------|
G|------------------------------------------------------|
D|------------6------------------6----------------------|
A|-------/5h7-----6---------/5h7-----6------------------|
E|-8--8\--------5-----8--8\--------5--------------------|

e|------------------------------------------------------|
B|------------------------------------------------------|
G|------------------------------------------------------|
D|------------6-----------------------------------------|
A|-------/5h7-----6-------------------------------------|
E|-8--8\--------5-----8--8-88-77-6-0-3------------------|

e|------------------------------------------------------|
B|------------------------------------------------------|
G|------------------------------------------------------|
D|-2--2------0-----2--2------0--------------------------|
A|-2--2--0h2-------2--2--0h2-----4----------------------|
E|-0--0--------3b--0--0--------3------------------------|

e|------------------------------------------------------|
B|------------------------------------------------------|
G|------------------------------------------------------|
D|-2--2------0-----2--2------0--------------------------|
A|-2--2--0h2-------2--2--0h2-----4----------------------|
E|-0--0--------3b--0--0--------3------------------------|

e|------------------------------------------------------|
B|-------2---------2---------2--------------------------|
G|-------4b--------4b--------4b-------------------------|
D|-2--2------2--2------2--2------2--2-------------------|
A|-2--2------2--2------2--2------2--2-------------------|
E|-0--0------0--0------0--0------0--0-------------------|

e|---18--18--18--18--18---18\--17\--16\--15--15---------|
B|-17--17--17--17--17---17---16---15---14--14-----------|
G|------------------------------------------------------|
D|------------------------------------------------------|
A|------------------------------------------------------|
E|------------------------------------------------------|

e|---18--18--18--18--18---18\--17\--16\--15-------------|
B|-17--17--17--17--17---17---16---15---14--14\----------|
G|------------------------------------------------------|
D|------------------------------------------------------|
A|------------------------------------------------------|
E|------------------------------------------------------|

e|--3/-6\-3/-6-6----3/-6/-9-9-9\---3/-6\-3/-6--6--------|
B|-2--5--2--5--5---2--5--8-8-8----2--5--2--5--5---------|
G|------------------------------------------------------|
D|------------------------------------------------------|
A|------------------------------------------------------|
E|------------------------------------------------------|

e|--9\-6/-9\-6-6/--9/--12\-9/--12--12\-9/--12\-3/-6-6---|
B|-8--5--8--5-5---8--11---8--11--11---8--11---2--5--5---|
G|------------------------------------------------------|
D|------------------------------------------------------|
A|------------------------------------------------------|
E|------------------------------------------------------|

e|-6/-12-12---12--12--12h13--13-13--13-13---------------|
B|----------11--11--11-----12-----12-----12-12-12-11v\--|
G|------------------------------------------------------|
D|------------------------------------------------------|
A|------------------------------------------------------|
E|------------------------------------------------------|

e|------------------------------------------------------|
B|-/11-11-11-11h12p11--11v-11h12p11--11-----------------|
G|-------------------12------------12--12---------------|
D|---------------------------------------11v-11-11-11h12|
A|------------------------------------------------------|
E|------------------------------------------------------|

e|------------------------------------------------------|
B|------------------\11-11-11-11h12p11--11h12v----------|
G|------------------------------------12----------------|
D|-11h12p11-9-888v\-------------------------------------|
A|------------------------------------------------------|
E|------------------------------------------------------|

e|------------------------------------------------------|
B|-11h12p11--11-----------------------------------------|
G|---------12--12---------------------------------------|
D|---------------11-11v--11-11-11h12-11-11-11-11\9-9v\--|
A|------------------------------------------------------|
E|------------------------------------------------------|

e|------------------------------------------------------|
B|------------------------------11h12p11------14--------|
G|--------------------------11v----------12-13--12v-12--| Alternate pick the 
D|--8\--/8\--/8-9v\--/9b-9v-----------------------------| 8th fret very fast
A|------------------------------------------------------| for this part.
E|------------------------------------------------------|

e|------------------------------------------------------|
B|------------------------------------------------------|
G|-12-12--12-12-12-12-12\-------------------------------|
D|-12-12--12-12-12-12-12\------0------------------------|
A|-------------------------0h2-----4--------------------|
E|-------------------------------3----------------------|

e|------------------------------------------------------|
B|------------------------------------------------------|
G|------------------------------------------------------|
D|-2--2------0-----2--2------0--------------------------|
A|-2--2--0h2-------2--2--0h2-----4----------------------|
E|-0--0--------3b--0--0--------3------------------------|

e|------------------------------------------------------|
B|------------------------------------------------------|
G|------------------------------------------------------|
D|-2--2------0-----2--2------0--------------------------|
A|-2--2--0h2-------2--2--0h2-----4----------------------|
E|-0--0--------3b--0--0--------3------------------------|

e|------------------------------------------------------|
B|------------------------------------------------------|
G|------------------------------------------------------|
D|------------6------------------6----------------------|
A|-------/5h7-----6---------/5h7-----6------------------|
E|-8--8\--------5-----8--8\--------5--------------------|

e|------------------------------------------------------|
B|------------------------------------------------------|
G|------------------------------------------------------|
D|------------6-----------------------------------------|
A|-------/5h7-----6-------------------------------------|
E|-8--8\--------5-----8--8-88-77-6-0-3------------------|

e|------------------------------------------------------|
B|------------------------------------------------------|
G|------------------------------------------------------|
D|-2--2------0-----2--2------0--------------------------|
A|-2--2--0h2-------2--2--0h2-----4----------------------|
E|-0--0--------3b--0--0--------3------------------------|

e|------------------------------------------------------|
B|------------------------------------------------------|
G|------------------------------------------------------|
D|-2--2------0-----2--2------0--------------------------|
A|-2--2--0h2-------2--2--0h2-----4----------------------|
E|-0--0--------3b--0--0--------3------------------------|

e|------------------------------------------------------|
B|-------2---------2---------/--------2-----------------|
G|-------4b--------4b--------/--------4b----------------|
D|-2--2------2--2------2--2--/--2--2--------------------|
A|-2--2------2--2------2--2-----2--2--------------------|
E|-0--0------0--0------0--0-----0--0--------------------|

e|------------------------------------------------------|
B|------------------------------------------------------|
G|------------------------------------------------------|
D|-5p3------------------5p3-----------------------------| 
A|---------4v---2p0-------------4v---2p0----------------|
E|-----5-3----0-----3p0-----5-3----0-----3p0------------|

e|------------------------------------------------------|
B|------------------------------------------------------|
G|------------------------------------------------------|
D|-5p3------------------5p3-----------------------------| 
A|---------4v---2p0-------------4---2p0-----------------|
E|-----5-3----0-----3p0-----5-3---0-----3p0-3-----------|

e|------------------------------------------------------|
B|------------------------------------------------------|
G|------------------------------------------------------|
D|-5p3------------------5p3-----------------------------| 
A|---------4v---2p0-------------4v---2p0----------------|
E|-----5-3----0-----3p0-----5-3----0-----3p0------------|

e|------------------------------------------------------|
B|------------------------------------------------------|
G|------------------------------------------------------|
D|-5p3------------------5p3-----------------------------| 
A|---------4v---2p0-------------4v---2p0----------------|
E|-----5-3----0-----3p0-----5-3----0-----3p0------------|

e|------------------------------------------------------|
B|------------------------------------------------------|
G|------------------------------------------------------|
D|-5p3------------------5p3-----------------------------| 
A|---------4v---2p0-------------4v---2p0----------------|
E|-----5-3----0-----3p0-----5-3----0-----3p0------------|

e|------------------------------------------------------|
B|------------------------------------------------------|
G|------------------------------------------------------|
D|-5p3------------------5p3-----------------------------| 
A|---------4v---2p0-------------4v---2p0----------------|
E|-----5-3----0-----3p0-----5-3----0-----3p0------------|


e|------------------------------------------------------|
B|-------7-5v----------------7-5v-----------------------|
G|-------7-5v----------------7-5v-----------------------|
D|------------------------------------------------------| 
A|------------2p0-----------------2p0-------------------|
E|-3-4-5----------3p0--3-4-5----------3p0---------------|

e|------------------------------------------------------|
B|-------7-5v----------------7-5v-----------------------|
G|-------7-5v----------------7-5v-----------------------|
D|------------------------------------------------------| 
A|------------2p0-----------------2p0-------------------|
E|-3-4-5----------3p0--3-4-5----------3p0---------------|

e|------------------------------------------------------|
B|------------------------------------------------------|
G|------------------------------------------------------|
D|------------------------------------------------------|
A|-------------------8\-------------------8\------------|
E|-3-4-5-5-5-6-7-7-7----3-4-5-5-5-6-7-7-7---------------|

e|------------------------------------------------------|
B|------------------------------------------------------|
G|------------------------------------------------------|
D|------------------------------------------------------|
A|-------------------8\---------------------------------|
E|-3-4-5-5-5-6-7-7-7----3-4-5-5-5-6-7\------------------|

Used Tab Symbols
_____________________
 h  = Hammer On
 p  = Pull Off
 ~  = Sustain
 v  = Vibrato
 w  = Wide Vibrato
 b  = Bend Up
 hb = Bend Halfway
 /  = Slide Up
 \  = Slide Down
 *  = Trill
 x  = Muted Note
 H  = Harmonic
 t  = Right Hand Tap
 :  = Let Ring
_____________________
Tap to rate this tab
 
# A B C D E F G H I J K L M N O P Q R S T U V W X Y Z