Song name
# A B C D E F G H I J K L M N O P Q R S T U V W X Y Z

Fatso Jetson - Sunshine Enema tab

Sunshine Enema by Fatso Jetson
This song is from the album "Cruel & Delicious".
I've tabbed this the way I play it.
Listen to the song to understand the rhythm and timing of the notes used.
This is played in standard tuning.


e|--------------------------------------------------------|
B|--------------------------------------------------------|
G|----------------------------------------7-7--4-4--------|
D|----------3--------4h5-4-----------3----5-5--4-4--------|
A|------2h3---3-/5-5-------5-----2h3---3--5-5--2-2--------|
E|--1-3----------------------1-3--------------------------|

e|--------------------------------------------------------|
B|--------------------------------------------------------|
G|----------------------------------------7-7--4-4--------|
D|----------3--------4h5-4-----------3----5-5--4-4--------|
A|------2h3---3-/5-5-------5-----2h3---3--5-5--2-2--------|
E|--1-3----------------------1-3--------------------------|

e|--------------------------------------------------------|
B|--------------------------------------------------------|
G|----------------------------------------7-7--4-4--------|
D|----------3--------4h5-4-----------3----5-5--4-4--------|
A|------2h3---3-/5-5-------5-----2h3---3--5-5--2-2--------|
E|--1-3----------------------1-3--------------------------|

e|--------------------------------------------------------|
B|--------------------------------------------------------|
G|----------------------------------------7-7--4-4--------|
D|----------3--------4h5-4-----------3----5-5--4-4--------|
A|------2h3---3-/5-5-------5-----2h3---3--5-5--2-2--------|
E|--1-3----------------------1-3--------------------------|

e|--------------------------------------------------------|
B|--------------------------------------------------------|
G|---------------7-7--4-4----------------7-7--4-4---------|
D|-3----3---3----7-7--4-4--3----3---3----7-7--4-4---------|
A|-3----3---3----5-5--2-2--3----3---3----5-5--2-2---------|
E|-1--0-1-0-1-0------------1--0-1-0-1-0-------------------|

e|--------------------------------------------------------|
B|--------------------------------------------------------|
G|---------------7-7--4-4----------------7-7--4-4---------|
D|-3----3---3----7-7--4-4--3----3---3----7-7--4-4---------|
A|-3----3---3----5-5--2-2--3----3---3----5-5--2-2---------|
E|-1--0-1-0-1-0------------1--0-1-0-1-0-------------------|

e|--------------------------------------------------------|
B|--------------------------------------------------------|
G|---------------7-7--4-4----------------7-7--4-4---------|
D|-3----3---3----7-7--4-4--3----3---3----7-7--4-4---------|
A|-3----3---3----5-5--2-2--3----3---3----5-5--2-2---------|
E|-1--0-1-0-1-0------------1--0-1-0-1-0-------------------|

e|--------------------------------------------------------|
B|--------------------------------------------------------|
G|---------------7-7--4-4----------------7-7--4-4---------|
D|-3----3---3----7-7--4-4--3----3---3----7-7--4-4---------|
A|-3----3---3----5-5--2-2--3----3---3----5-5--2-2---------|
E|-1--0-1-0-1-0------------1--0-1-0-1-0-------------------|


e|--------------------------------------------------------|
B|--------------------------------------------4-----------|
G|--------------------------------------------6b----------|
D|--6--6-6-6-6-6--6--6-6-6-6-6--6--6-6-6-6-6--------------|
A|--6--6-6-6-6-6--6--6-6-6-6-6--6--6-6-6-6-6--------------|
E|--4--4-4-4-4-4--4--4-4-4-4-4--4--4-4-4-4-4--------------|

e|--------------------------------------------------------|
B|--------------------------------------------------------|
G|----------------------------------------7-7--4-4--------|
D|----------3--------4h5-4-----------3----5-5--4-4--------|
A|------2h3---3-/5-5-------5-----2h3---3--5-5--2-2--------|
E|--1-3----------------------1-3--------------------------|

e|--------------------------------------------------------|
B|--------------------------------------------------------|
G|----------------------------------------7-7--4-4--------|
D|----------3--------4h5-4-----------3----5-5--4-4--------|
A|------2h3---3-/5-5-------5-----2h3---3--5-5--2-2--------|
E|--1-3----------------------1-3--------------------------|

e|--------------------------------------------------------|
B|--------------------------------------------------------|
G|----------------------------------------7-7--4-4--------|
D|----------3--------4h5-4-----------3----5-5--4-4--------|
A|------2h3---3-/5-5-------5-----2h3---3--5-5--2-2--------|
E|--1-3----------------------1-3--------------------------|

e|--------------------------------------------------------|
B|--------------------------------------------------------|
G|----------------------------------------7-7--4-4--------|
D|----------3--------4h5-4-----------3----5-5--4-4--------|
A|------2h3---3-/5-5-------5-----2h3---3--5-5--2-2--------|
E|--1-3----------------------1-3--------------------------|

e|--------------------------------------------------------|
B|--------------------------------------------------------|
G|---------------7-7--4-4----------------7-7--4-4---------|
D|-3----3---3----7-7--4-4--3----3---3----7-7--4-4---------|
A|-3----3---3----5-5--2-2--3----3---3----5-5--2-2---------|
E|-1--0-1-0-1-0------------1--0-1-0-1-0-------------------|

e|--------------------------------------------------------|
B|--------------------------------------------------------|
G|---------------7-7--4-4----------------7-7--4-4---------|
D|-3----3---3----7-7--4-4--3----3---3----7-7--4-4---------|
A|-3----3---3----5-5--2-2--3----3---3----5-5--2-2---------|
E|-1--0-1-0-1-0------------1--0-1-0-1-0-------------------|

e|--------------------------------------------------------|
B|--------------------------------------------------------|
G|---------------7-7--4-4----------------7-7--4-4---------|
D|-3----3---3----7-7--4-4--3----3---3----7-7--4-4---------|
A|-3----3---3----5-5--2-2--3----3---3----5-5--2-2---------|
E|-1--0-1-0-1-0------------1--0-1-0-1-0-------------------|

e|--------------------------------------------------------|
B|--------------------------------------------------------|
G|---------------7-7--4-4----------------7-7--4-4---------|
D|-3----3---3----7-7--4-4--3----3---3----7-7--4-4---------|
A|-3----3---3----5-5--2-2--3----3---3----5-5--2-2---------|
E|-1--0-1-0-1-0------------1--0-1-0-1-0-------------------|

e|--------------------------------------------------------|
B|--------------------------------------------4-----------|
G|--------------------------------------------6b----------|
D|--6--6-6-6-6-6--6--6-6-6-6-6--6--6-6-6-6-6--------------|
A|--6--6-6-6-6-6--6--6-6-6-6-6--6--6-6-6-6-6--------------|
E|--4--4-4-4-4-4--4--4-4-4-4-4--4--4-4-4-4-4--------------|

e|--------------------------------------------------------|
B|--------------------------------------------------------|
G|----------------------------------------7-7--4-4--------|
D|----------3--------4h5-4-----------3----5-5--4-4--------|
A|------2h3---3-/5-5-------5-----2h3---3--5-5--2-2--------|
E|--1-3----------------------1-3--------------------------|

e|--------------------------------------------------------|
B|--------------------------------------------------------|
G|----------------------------------------7-7--4-4--------|
D|----------3--------4h5-4-----------3----5-5--4-4--------|
A|------2h3---3-/5-5-------5-----2h3---3--5-5--2-2--------|
E|--1-3----------------------1-3--------------------------|

e|--------------------------------------------------------|
B|--------------------------------------------------------|
G|----------------------------------------7-7--4-4--------|
D|----------3--------4h5-4-----------3----5-5--4-4--------|
A|------2h3---3-/5-5-------5-----2h3---3--5-5--2-2--------|
E|--1-3----------------------1-3--------------------------|

e|--------------------------------------------------------|
B|--------------------------------------------------------|
G|----------------------------------------7-7--4-4--------|
D|----------3--------4h5-4-----------3----5-5--4-4--------|
A|------2h3---3-/5-5-------5-----2h3---3--5-5--2-2--------|
E|--1-3----------------------1-3--------------------------|


e|--------------------------------------------------------|
B|--------------------------------------------------------|
G|--------------------------------------------------------|
D|-6--6-6-6-6-6--6--6-6-6-6-6--6--6-6-6-6-6--6--6-6-6-6\--|
A|-6--6-6-6-6-6--6--6-6-6-6-6--6--6-6-6-6-6--6--6-6-6-6\--|
E|-4--4-4-4-4-4--4--4-4-4-4-4--4--4-4-4-4-4--4--4-4-4-4\--|

Used Tab Symbols
_____________________
 h  = Hammer On
 p  = Pull Off
 ~  = Sustain
 v  = Vibrato
 w  = Wide Vibrato
 b  = Bend Up
 hb = Bend Halfway
 /  = Slide Up
 \  = Slide Down
 *  = Trill
 x  = Muted Note
 H  = Harmonic
 t  = Right Hand Tap
 :  = Let Ring
_____________________
Tap to rate this tab
# A B C D E F G H I J K L M N O P Q R S T U V W X Y Z