Song name
# A B C D E F G H I J K L M N O P Q R S T U V W X Y Z

Fatso Jetson - Vatos Of The Astral Plane tab

Vatos of the Astral Plane by Fatso Jetson.
This song is from the album "Flames for All".
I've tabbed this the way I play it.
Listen to the song to understand the rhythm and timing of the notes used.
This is played in standard tuning.



e|-----------------------------------------------------|
B|-----------------------------------------------------|
G|-------2p0-------------2p0-------------2p0-----------|
D|---2p0-------------2p0-------------2p0---------------|
A|-1-------------2-1-------------2-1-------------------|
E|-----------3-0-------------3-0-----------------------|

e|-----------------------------------------------------|
B|-----------------------------------------------------|
G|-------------2p0-------------2p0-------------2p0-----|
D|---------2p0-------------2p0-------------2p0---------|
A|-----2-1-------------2-1-------------2-1-------------|
E|-3-0-------------3-0-------------3-0-----------------|

e|-----------------------------------------------------|
B|-----------------------------------------------------|
G|-------------2p0-------------2p0-------------2p0-----|
D|---------2p0-------------2p0-------------2p0---------|
A|-----2-1-------------2-1-------------2-1-------------|
E|-3-0-------------3-0-------------3-0-----------------|

e|-----------------------------------------------------|
B|-----------------------------------------------------|
G|-------------2p0-------------2p0-------------2p0-----|
D|---------2p0-------------2p0-------------2p0---------|
A|-----2-1-------------2-1-------------2-1-------------|
E|-3-0-------------3-0-------------3-0-----------------|

e|-----------------------------------------------------|
B|-----------------------------------------------------|
G|-------------2p0-------------2p0-------------2p0-----|
D|---------2p0-------------2p0-------------2p0---------|
A|-----2-1-------------2-1-------------2-1-------------|
E|-3-0-------------3-0-------------3-0-----------------|

e|-----------------------------------------------------|
B|-----------------------------------------------------|
G|-------------2p0-------------2p0-------------2p0-----|
D|---------2p0-------------2p0-------------2p0---------|
A|-----2-1-------------2-1-------------2-1-------------|
E|-3-0-------------3-0-------------3-0-----------------|

e|-----------------------------------------------------|
B|-----------------------------------------------------|
G|-------------2p0-------------2p0-------------2p0-----|
D|---------2p0-------------2p0-------------2p0---------|
A|-----2-1-------------2-1-------------2-1-------------|
E|-3-0-------------3-0-------------3-0-----------------|

e|-----------------------------------------------------|
B|-----------------------------------------------------|
G|-------------2p0-------------2p0-------------2p0-----|
D|---------2p0-------------2p0-------------2p0---------|
A|-----2-1-------------2-1-------------2-1-------------|
E|-3-0-------------3-0-------------3-0-----------------|

e|-----------------------------------------------------------------|
B|-----------------------------------------------------------------|
G|-----------------------------------------------------------------|
D|-------5-5-----3-3--------------4p0-5-5-----3-3--------------4p0-|
A|-----2-5-5-2p0-3-3----3-----5p3-----5-5-2p0-3-3----3-----5p3-----|
E|-3-0---3-3-----1-1-/5---4-5---------3-3-----1-1-/5---4-5---------|

e|-------------------------------------------------------------|
B|-------------------------------------------------------------|
G|-------------------------------------------------------------|
D|-5-5-----3-3--------------4p0-5-5-----3-3--------------4p0---|
A|-5-5-2p0-3-3----3-----5p3-----5-5-2p0-3-3----3-----5p3-------|
E|-3-3-----1-1-/5---4-5---------3-3-----1-1-/5---4-5-----------|

e|-----------------------------------------------------|
B|-----------------------------------------------------|
G|-------------2p0-------------2p0-------------2p0-----|
D|---------2p0-------------2p0-------------2p0---------|
A|-----2-1-------------2-1-------------2-1-------------|
E|-3-0-------------3-0-------------3-0-----------------|

e|-----------------------------------------------------|
B|-----------------------------------------------------|
G|-------------2p0-------------2p0-------------2p0-----|
D|---------2p0-------------2p0-------------2p0---------|
A|-----2-1-------------2-1-------------2-1-------------|
E|-3-0-------------3-0-------------3-0-----------------|

e|-----------------------------------------------------|
B|-----------------------------------------------------|
G|-------------2p0-------------2p0-------------2p0-----|
D|---------2p0-------------2p0-------------2p0---------|
A|-----2-1-------------2-1-------------2-1-------------|
E|-3-0-------------3-0-------------3-0-----------------|

e|-----------------------------------------------------|
B|-----------------------------------------------------|
G|-------------2p0-------------2p0-------------2p0-----|
D|---------2p0-------------2p0-------------2p0---------|
A|-----2-1-------------2-1-------------2-1-------------|
E|-3-0-------------3-0-------------3-0-----------------|

e|-----------------------------------------------------|
B|-----------------------------------------------------|
G|-------------2p0-------------2p0-------------2p0-----|
D|---------2p0-------------2p0-------------2p0---------|
A|-----2-1-------------2-1-------------2-1-------------|
E|-3-0-------------3-0-------------3-0-----------------|

e|-----------------------------------------------------|
B|-----------------------------------------------------|
G|-------------2p0-------------2p0-------------2p0-----|
D|---------2p0-------------2p0-------------2p0---------|
A|-----2-1-------------2-1-------------2-1-------------|
E|-3-0-------------3-0-------------3-0-----------------|

e|-----------------------------------------------------|
B|-----------------------------------------------------|
G|-------------2p0-------------2p0-------------2p0-----|
D|---------2p0-------------2p0-------------2p0---------|
A|-----2-1-------------2-1-------------2-1-------------|
E|-3-0-------------3-0-------------3-0-----------------|

e|-----------------------------------------------------|
B|-----------------------------------------------------|
G|-------------2p0-------------2p0-------------2p0-----|
D|---------2p0-------------2p0-------------2p0---------|
A|-----2-1-------------2-1-------------2-1-------------|
E|-3-0-------------3-0-------------3-0-----------------|

e|-----------------------------------------------------------------|
B|-----------------------------------------------------------------|
G|-----------------------------------------------------------------|
D|-------5-5-----3-3--------------4p0-5-5-----3-3--------------4p0-|
A|-----2-5-5-2p0-3-3----3-----5p3-----5-5-2p0-3-3----3-----5p3-----|
E|-3-0---3-3-----1-1-/5---4-5---------3-3-----1-1-/5---4-5---------|

e|-------------------------------------------------------------|
B|-------------------------------------------------------------|
G|-------------------------------------------------------------|
D|-5-5-----3-3--------------4p0-5-5-----3-3--------------4p0---|
A|-5-5-2p0-3-3----3-----5p3-----5-5-2p0-3-3----3-----5p3-------|
E|-3-3-----1-1-/5---4-5---------3-3-----1-1-/5---4-5-----------|

e|-----------------------------------------------------|
B|-----------------------------------------------------|
G|-------------2p0-------------2p0-------------2p0-----|
D|---------2p0-------------2p0-------------2p0---------|
A|-----2-1-------------2-1-------------2-1-------------|
E|-3-0-------------3-0-------------3-0-----------------|

e|-----------------------------------------------------|
B|-----------------------------------------------------|
G|-------------2p0-------------2p0-------------2p0-----|
D|---------2p0-------------2p0-------------2p0---------|
A|-----2-1-------------2-1-------------2-1-------------|
E|-3-0-------------3-0-------------3-0-----------------|

e|-----------------------------------------------------|
B|-----------------------------------------------------|
G|-------------2p0-------------2p0-------------2p0-----|
D|---------2p0-------------2p0-------------2p0---------|
A|-----2-1-------------2-1-------------2-1-------------|
E|-3-0-------------3-0-------------3-0-----------------|

e|-----------------------------------------------------|
B|-----------------------------------------------------|
G|-------------2p0-------------2p0-------------2p0-----|
D|---------2p0-------------2p0-------------2p0---------|
A|-----2-1-------------2-1-------------2-1-------------|
E|-3-0-------------3-0-------------3-0-----------------|

e|-----------------------------------------------------|
B|-----------------------------------------------------|
G|-------------2p0-------------2p0-------------2p0-----|
D|---------2p0-------------2p0-------------2p0---------|
A|-----2-1-------------2-1-------------2-1-------------|
E|-3-0-------------3-0-------------3-0-----------------|

e|-----------------------------------------------------|
B|-----------------------------------------------------|
G|-------------2p0-------------2p0-------------2p0-----|
D|---------2p0-------------2p0-------------2p0---------|
A|-----2-1-------------2-1-------------2-1-------------|
E|-3-0-------------3-0-------------3-0-----------------|

e|-----------------------------------------------------|
B|-----------------------------------------------------|
G|-------------2p0-------------2p0-------------2p0-----|
D|---------2p0-------------2p0-------------2p0---------|
A|-----2-1-------------2-1-------------2-1-------------|
E|-3-0-------------3-0-------------3-0-----------------|

e|-----------------------------------------------------|
B|-----------------------------------------------------|
G|-------------2p0-------------2p0-------------2p0-----|
D|---------2p0-------------2p0-------------2p0---------|
A|-----2-1-------------2-1-------------2-1-------------|
E|-3-0-------------3-0-------------3-0-----------------|

e|-----------------------------------------------------------------|
B|-----------------------------------------------------------------|
G|-----------------------------------------------------------------|
D|-------5-5-----3-3--------------4p0-5-5-----3-3--------------4p0-|
A|-----2-5-5-2p0-3-3----3-----5p3-----5-5-2p0-3-3----3-----5p3-----|
E|-3-0---3-3-----1-1-/5---4-5---------3-3-----1-1-/5---4-5---------|

e|-------------------------------------------------------------|
B|-------------------------------------------------------------|
G|-------------------------------------------------------------|
D|-5-5-----3-3--------------4p0-5-5-----3-3--------------4p0---|
A|-5-5-2p0-3-3----3-----5p3-----5-5-2p0-3-3----3-----5p3-------|
E|-3-3-----1-1-/5---4-5---------3-3-----1-1-/5---4-5-----------|

e|-------------------------------------------------------------|
B|-------------------------------------------------------------|
G|-------------------------------------------------------------|
D|-5-5-----3-3--------------4p0-5-5-----3-3--------------4p0---|
A|-5-5-2p0-3-3----3-----5p3-----5-5-2p0-3-3----3-----5p3-------|
E|-3-3-----1-1-/5---4-5---------3-3-----1-1-/5---4-5-----------|

e|-------------------------------------------------------------|
B|-------------------------------------------------------------|
G|-------------------------------------------------------------|
D|-5-5-----3-3--------------4p0-5-5-----3-3--------------4p0-5-|
A|-5-5-2p0-3-3----3-----5p3-----5-5-2p0-3-3----3-----5p3-----5-|
E|-3-3-----1-1-/5---4-5---------3-3-----1-1-/5---4-5---------3-|



Used Tab Symbols
_____________________
 h  = Hammer On
 p  = Pull Off
 ~  = Sustain
 v  = Vibrato
 w  = Wide Vibrato
 b  = Bend
 hb = Bend Halfway
 /  = Slide Up
 \  = Slide Down
 *  = Trill
 x  = Muted Note
 H  = Harmonic
 t  = Right Hand Tap
 :  = Let Ring
_____________________
Tap to rate this tab
# A B C D E F G H I J K L M N O P Q R S T U V W X Y Z